Oops, an error
Loading. Please wait.

Toda Gloria Y Majestad Tab

87 views 1 this week
no commentswrite comment
1 2 3 4 5
3 more votes to show rating
add to favorites
×
Save as Personal and add changes to this tab that will be seen only by you. Learn more ›
×
You can save this tab as Personal to edit and correct it or add notes. All changes will be seen only by you. Learn more »
save as personal
new!
launch autoscroll
font size
0
reset
how to read this tab
guitar tuner
Autoscroll
slow
fast
+/-
esc
set tempo
stop
Intro
-------------------
-------------------
-------------------
-2-4-6---4---6-2---
-0-2-4---2---4-0---
-------------------


Solo (3:53)
12--11--------------------12--11--------------------------------
-------14--12---------------------14--12------------------------
----------------13/(16)-------------------13/(16)--16b(18)-16-16
----------------------------------------------------------------
----------------------------------------------------------------
----------------------------------------------------------------

----------------------------------------------------------------
----------------------------------------------------------------
----------13-14--11v--13v--14v--16------------13v--14v-16b(18)16
-16\(14)-----------------------------13-14-16-------------------
----------------------------------------------------------------
----------------------------------------------------------------

----------------------------------------------------------------
------19b(21)-19(21)-17\(14)------------------------------------
16-16-------------------------16b(18)-14------------------------
------------------------------------------16-14-13--------------
---------------------------------------------------16vv---------
----------------------------------------------------------------

Arreglos

4:24                          4:32
---16b(17)16--14---12-------------------------------------------
12---------------------14--------16(18)-16--12------------------
------------------------------------------------13--16(18)--16--
----------------------------------------------------------------
----------------------------------------------------------------
----------------------------------------------------------------

4:41
----------------------
----------------------
---9--11(13)p9--------
11--------------9/(11)
----------------------
----------------------

4:47 Comienza el mejor arreglo de la cancion
------------------------------------------------------16--17-16-19b(21)-19b(21)
----------------------------------------16-17-16-19-17--19---------------------
9--8---9/(11)--9(13)--13-14-13----16-18----------------------------------------
-----9-------------------------------------------------------------------------
-------------------------------------------------------------------------------
-------------------------------------------------------------------------------

4:57
18b(20)-18-17------------------
---------------20(22)-20-18----
----------------------------19-
-------------------------------
-------------------------------

5:05                                  5:14
-----------------17--------------------/12-11--------------
---------19b(21)----19b(21)-17---------------12------------
16-16-16-----------------------/18vv-----------/13-11p9----
--------------------------------------------------------11v
-----------------------------------------------------------
-----------------------------------------------------------
-----------------------------------------------------------

5:24                  5:30
-----------------------------------------------------------
-------------------------12b(14)-12--10-9------------------
---------11b(13)-11-----------------------11b(13)-11-9-----
11-13-14-----------------------------------------------11vv
-----------------------------------------------------------
-----------------------------------------------------------

Solo 5:37
---------------------------------19b(21)-19b(21)-19-17-16-17-16-14-------
---17-17---19vv----17-19-21b(22)----------------------------------17-16--
/16------16------16----------------------------------------------------16
-------------------------------------------------------------------------
-------------------------------------------------------------------------
-------------------------------------------------------------------------

----------------------------------------------
-----17-16-----------------14-----------------
/(16)------18p16------14-16---16-14-----------
-----------------------------------------14vvv
----------------------------------------------
----------------------------------------------

19b(21) Estiras en el 19 hasta alcanzar el sonido del traste 21
13/(16) Slide del 13 al 16 y el 16 no lo tocas
v Vibrato
18p16 Tocas el 18 y haces pull-off al 16

Puedas encontrar mas cosas en  (mi pagina)
Que sea de bendicion y toda gloria y majestad a Él
Suggest correction
Give kudos to tab author, rate the tab!
1 2 3 4 5
comments
print report bad tab
guest
Wanna post a correction for this tab? Suggest correction