Oops, an error
Loading. Please wait.

Traemos Hoy Ante Tu Altar Chords

95 views 6 this week
no commentswrite comment
1 2 3 4 5
3 more votes to show rating
add to favorites
launch autoscroll
font size
0
reset
transpose
0
reset
simplify chords
display chords
guitar tuner
×
Best way to learn
"Traemos Hoy Ante Tu Altar"
Autoscroll
slow
fast
+/-
esc
set tempo
stop
¡¡HOLA!!!!
BUENO MIRA PRIMERO ESCUCHA LA CANCION PARA Q TENGAS IDEA DE CÓMO VA

ESTA ES MUY FACIL PARA TOCARLA
Intro primera guitarra:

e|----------------------------------------------------|
B|-9-5-7-9--9---9-5-7-9--9---9-5-7--9-9-7--5-2--2/5---|
G|----------------------------------------------------|
D|----------------------------------------------------|
A|----------------------------------------------------|
E|----------------------------------------------------|

                                                   E
e|----------------------------------------------------|
B|-9-5-7-9--9--9-5-7-9--9--9-5-7--9-9-7--5-2--2/5--1--|
G|-------------------------------------------------2--|
D|-------------------------------------------------2--|
A|----------------------------------------------------|
E|----------------------------------------------------|

En la intro la segunda guitarra lleva estos acordes

e|--------v--------------v----------------------------|
B|--------v--------------v----------------------------|
G|--1-----v--------1-----v----------------------------|
D|--2-----v--------2-----v----------------------------|
A|--2-----v-4------2-----v-4--------------------------|
E|--------v-4------------v-4--------------------------|

    E     F#m      E     F#m   (v es igual ceguilla)

EN BAJO SOLO SE MARCA ?E? EN TODOS LOS ACORDES)

E        Aadd2          E              B
 Traemos hoy ante tu altar nuestras coronas

E         Aadd2        E              B
 Queremos darte lo mejor de nuestras vidas

F#m                C#m
 Te entregare mi amor entero

Aadd2               B
 Los sueños que logre alcanzar

            Coro
       C#m     A          E
 Te dare lo mejor de mi vida

       C#m     A         B   B
 Te dare lo mejor cada dia

G#7sus4      G#7              C#m
  Sera mucho mas que una cancion

         A           F#m       B
 Mi obediencia es mi mejor adoracion


e|----------------------------------------------------|
B|-9-5-7--9-9---9-5-7-9-9---9-5-7--9-9--5/7-5-5/7-5---|
G|--------------------------------------------------1-|
D|--------------------------------------------------2-|
A|--------------------------------------------------2-|
E|----------------------------------------------------|

          E     F#m            E     F#m


E        Aadd2          E              B
 Traemos hoy ante tu altar nuestras coronas

E         Aadd2        E              B
 Queremos darte lo mejor de nuestras vidas

F#m           C#m
 Daremos solo las primicias

Aadd2            B
 Pues tu mereces lo mejor


            Coro

       C#m     A          E
 Te dare lo mejor de mi vida

       C#m     A         B   B
 Te dare lo mejor cada dia

G#7sus4      G#7              C#m
  Sera mucho mas que una cancion

         A           F#m       B
 Mi obediencia es mi mejor adoracion

   ***CORO SE CANTA DOS VESCES***


Solo primera guitarra :


e|-1/9--11--12----11--12----7/9-7-9/191919--171717---|
B|-------------10--------9---------------------------|
G|---------------------------------------------------|
D|---------------------------------------------------|
A|---------------------------------------------------|
E|---------------------------------------------------|


e|----161616-121212-14--12-14b-----------------------|
B|---------------------------------------------------|
G|---------------------------------------------------|
D|---------------------------------------------------|
A|---------------------------------------------------|
E|---------------------------------------------------|

Acoderdes en el solo segunda guitarra :

E        Aadd2          E              B


F#m           C#m
 Daremos solo las primicias

Aadd2            B
 Pues tu mereces lo mejor


       ****Coro****


    E            Aadd2     B
  ///te dare lo mejor de mi///


C#m     B       Aadd2
  Te dare lo mejor.


e|----------|
B|----------|
G|---2------|   Aadd2
D|---2------|
A|----------|
E|----------|

e|---V------|
B|---V------|
G|---V-6----|   G#7sus4
D|---V------|
A|---V-6----|
E|---V------|


e|---V------|
B|---V------|
G|---V-5----|   G#7
D|---V------|
A|---V-6----|
E|---V------|


AHÍ ESTA LA TAB ESPERO Q LES SIRVA MUCHO YA Q A DIOS HAY
Q DARLE LO MEJOR DE NOSOTROS....
saludos todos de la nazareno quiche guatemala bye bye
Suggest correction
Give kudos to tab author, rate the tab!
1 2 3 4 5
comments
print report bad tab
guest
You may want to rate the tab now too:
select rating
Wanna post a correction for this tab? Suggest correction