Oops, an error
Loading. Please wait.

Tu Amor Es Mi Energía Tab

version 1
version 1

Whole song

7 views 1 this week
no commentswrite comment
1 2 3 4 5
3 more votes to show rating
add to favorites
×
Save as Personal and add changes to this tab that will be seen only by you. Learn more ›
×
You can save this tab as Personal to edit and correct it or add notes. All changes will be seen only by you. Learn more »
save as personal
new!
launch autoscroll
font size
0
reset
how to read this tab
guitar tuner
Autoscroll
slow
fast
+/-
esc
set tempo
stop
------------------------
       E A D G B E

Asus7     0 0 2 2 0 0
Asus7(2)  0 7 7 6 0 0
F#m7      0 4 4 2 0 0
Dsus2     0 0 0 2 3 0
D         0 0 0 2 3 2
Esus4     0 2 2 2 0 0
E         0 2 2 1 0 0
Bm7       2 2 4 4 3 2 (cejilla)
C#m7      4 4 6 6 5 4 (cejilla)
C#m7(2)   0 4 6 6 0 0

------------------------
Intro (Arpegio) s: Deslizar el dedo
el numerito indica el traste.

E---------------------------------------------
B--10-12-1414-1212-1010-----------------------
G---------------------------------------------
D---------------------------------------------
A---------------------------------------------
E---------------------------------------------


E--------------12-14--------------------------
B--10-12-1414--------10-----------------------
G---------------------------------------------
D---------------------------------------------
A---------------------------------------------
E---------------------------------------------


E---------------------------------------------
B--10-12-1414-1212-1010-10-12-----------------
G-----------------------------9s11-9----------
D---------------------------------------------
A---------------------------------------------
E---------------------------------------------


------------------------


Asus2                    C#m7(2)    Dsus2
  No me puedo imaginar mi vida, sin ti
Asus2                     C#m7(2)
  no me puedo imaginar mis horas
            Dsus2        F#m7
  sin tu silueta en mi memoria
                Bm7            Esus4-E
  te has vuelto parte de mi historia


Asus2                    C#m7(2)         Dsus2
  no me puedo imaginar los años, que vendran
Asus2                      C#m7(2)
  no los puedo imaginar si tu no estas
           Dsus2        F#m7
  sin tu mirada y tu sonrisa
          Bm7          E
  mi vida no seria la misma


----------puente--------------------
C#m7           D                 E
  contigo me siento que puedo llegar
Bm7               F#m7           E
  tan alto y tan lejos como superman

------------------------------------
Asus2            Dsus2          Asus2
  contigo yo me siento como un heroe
Asus2              Dsus2      E
  tu amor es mi energia mi motor
Bm7          C#m7             D              F#m7             D
  y mi mayor azaña es conquistarte y darte a ti mi amor por siempre
         F#m7       E
  y proteger tu corazon

--------------------------------

Hola chavows enamorados jijijij bueno pues esta es esa rolilla
que tanto querian sacar aca bien pro,
pero alternen las opciones de Asus2
y el de C#m7 para que se escuche mas variado y mejor.

El arpegio es muy sencillo y se repite en la mitad y al final
juegen en la mitad como los mismos tonos
pero en las cuerdas de A y D ahi por los trastes 7,9 y 11.

saludos desde tijuana brothers!! =)!!
rokkodg@
Suggest correction
Give kudos to tab author, rate the tab!
1 2 3 4 5
comments
print report bad tab
guest
Wanna post a correction for this tab? Suggest correction