Oops, an error
Loading. Please wait.

Tu Bandera Tab

version 1
version 1

Whole song

1,223 views 12 this week
no commentswrite comment
1 2 3 4 5
1 last vote to show rating
add to favorites
launch autoscroll
font size
0
reset
how to read this tab
guitar tuner
Autoscroll
slow
fast
+/-
esc
set tempo
stop
Help us to improve Ultimate-Guitar.com Take our survey!
×
oOok...Coloquen el capo en el 4to. traste
Desde ahí cuenta la tablatura.


Intro:

    F#         C#          D#m
e-|--------2-----------0-----------2-----------2---|
B-|-----3----3------2-----2-----3----3------3----3-|
G-|---2---2-------2---2-------4---4-------4---3----|
D-|-0----------------------------------------------|
A-|-------------0-----------2-----------2----------|
E-|------------------------------------------------|

    B            A#m         C#
e-|---------3------------2-----------0-------|
B-|-----3-----3------2-----2------2----2--2--|
G-|---0---0--------2---2--------2---2-----2--|
D-|------------------------------------------|
A-|---------------------------0--------------|
E-|-3------------2---------------------------|

I

    F#          C#         D#m
   Como en... extraño... sin Ti
e-|--------2-----------0-----------2-----------2---|
B-|-----3----3------2-----2-----3----3------3----3-|
G-|---2---2-------2---2-------4---4-------4---3----|
D-|-0----------------------------------------------|
A-|-------------0-----------2-----------2----------|
E-|------------------------------------------------|

    B            A#m         C#
   no entendía...ni las co...vivi
e-|---------3------------2-----------0----------0--2-|
B-|-----3-----3------2-----2------2----2--2--3--2--3-|
G-|---0---0--------2---2--------2---2-----2--4-------|
D-|--------------------------------------------------|
A-|---------------------------0----------------------|
E-|-3------------2-----------------------------------|

   F#          C#          D#m
   y corrí...  ver tu...la gente
e-|--------2-----------0-----------2-----------2---|
B-|-----3----3------2-----2-----3----3------3----3-|
G-|---2---2-------2---2-------4---4-------4---3----|
D-|-0----------------------------------------------|
A-|-------------0-----------2-----------2----------|
E-|------------------------------------------------|

        B            G#m           C#          B
y...conocerte con...estaba de enc...a ti        de encon...a ti
     e-|---------3------------0------------0-----------3---|
     B-|-----3-----3------0-----0------2-----2-----3-----3-|
     G-|---0---0--------0---0--------2---2-------0---0-----|
     D-|---------------------------------------------------|
     A-|---------------------------0-----------------------|
     E-|-3------------0------------------------3-----------|


CORO:
   F#                    B          C#
                   Y en medio de...fusión se alzaba tu ban...
e-|--------2-------0--2--3-------3------------0---|
B-|-----3----3--3--2--3--3---3-----3------2-----2-|
G-|---2---2-----2----------0---0--------2---2-----|
D-|-0---------------------------------------------|
A-|-----------------------------------0-----------|
E-|----------------------3------------------------|

    F#                   B           C#
...dera             se enarbolaba...sol diciéndome que...
e-|--------2-------0--2--3-------3------------5---|
B-|-----3----3--3--2--3--3---3-----3------2-----2-|
G-|---2---2-----2----------0---0--------2---2-----|
D-|-0---------------------------------------------|
A-|-----------------------------------0-----------|
E-|----------------------3------------------------|

     F#                   D#m
...fuera, y a...siguiera
e-|--------2-------------2---|
B-|-----3----3-------3-----3-|
G-|---2---2--------4---4-----|
D-|-0------------------------|
A-|--------------2-----------|
E-|--------------------------|

     B                      C#                F#          C#
Y así me...en la cruz Y...dito amor
e-|---------3-------------5-----------2------|
B-|-----3-----3-------2-----2-----3-----3--2-|
G-|---0---0---------2---2-------2---2------2-|
D-|---------------------------0------------2-|
A-|---------------0------------------------0-|
E-|-3----------------------------------------|

Intermedio

    F#         C#          D#m
e-|--------2-----------0-----------2-----------2---|
B-|-----3----3------2-----2-----3----3------3----3-|
G-|---2---2-------2---2-------4---4-------4---3----|
D-|-0----------------------------------------------|
A-|-------------0-----------2-----------2----------|
E-|------------------------------------------------|

    B            A#m         C#
e-|---------3------------2-----------0----------0--2-|
B-|-----3-----3------2-----2------2----2--2--3--2--3-|
G-|---0---0--------2---2--------2---2-----2--4-------|
D-|--------------------------------------------------|
A-|---------------------------0----------------------|
E-|-3------------2-----------------------------------|

II

    F#          C#         D#m
Nunca ima...la vida que...en Ti
e-|--------2-----------0-----------2-----------2---|
B-|-----3----3------2-----2-----3----3------3----3-|
G-|---2---2-------2---2-------4---4-------4---3----|
D-|-0----------------------------------------------|
A-|-------------0-----------2-----------2----------|
E-|------------------------------------------------|

   B            A#m           C#
   Ni la gra...me diste...volví
e-|---------3------------2-----------0----------0--2-|
B-|-----3-----3------2-----2------2----2--2--3--2--3-|
G-|---0---0--------2---2--------2---2-----2--4-------|
D-|--------------------------------------------------|
A-|---------------------------0----------------------|
E-|-3------------2-----------------------------------|

    F#          A#m          D#m
  Más ahora se que en Ti yo...anhelo
e-|--------2-------------2------------2---|
B-|-----3----3-------2-----2------3-----3-|
G-|---2---2--------2---2--------4---4-----|
D-|-0-------------------------------------|
A-|---------------------------2-----------|
E-|--------------2------------------------|

   C#            B            G#m         C#
     Tengo vida plena, tengo paz ete...a Ti             si te tengo a Ti
e-|---------0------------3------------0------------0-----------3---|
B-|-----2-----2------3-----3------0-----0------2-----2-----3-----3-|
G-|---2---2--------0---0--------0---0--------2---2-------0---0-----|
D-|----------------------------------------------------------------|
A-|-0--------------------------------------0-----------------------|
E-|--------------3------------0------------------------3-----------|


CORO:
   F#                    B          C#
                   Y en medio de...fusión se alzaba tu ban...
e-|--------2-------0--2--3-------3------------0---|
B-|-----3----3--3--2--3--3---3-----3------2-----2-|
G-|---2---2-----2----------0---0--------2---2-----|
D-|-0---------------------------------------------|
A-|-----------------------------------0-----------|
E-|----------------------3------------------------|

    F#                   B           C#
...dera             se enarbolaba...sol diciéndome que...
e-|--------2-------0--2--3-------3------------5---|
B-|-----3----3--3--2--3--3---3-----3------2-----2-|
G-|---2---2-----2----------0---0--------2---2-----|
D-|-0---------------------------------------------|
A-|-----------------------------------0-----------|
E-|----------------------3------------------------|

     F#                   D#m
...fuera, y a...siguiera
e-|--------2-------------2---|
B-|-----3----3-------3-----3-|
G-|---2---2--------4---4-----|
D-|-0------------------------|
A-|--------------2-----------|
E-|--------------------------|

     B                      C#                F#
Y así me...en la cruz Y...dito amor
e-|---------3-------------5-----------2-------0--2--|
B-|-----3-----3-------2-----2-----3-----3--3--2--3--|
G-|---0---0---------2---2-------2---2------2--------|
D-|---------------------------0---------------------|
A-|---------------0---------------------------------|
E-|-3-----------------------------------------------|

Requinteo:

        B               C#         F#
e-|-2-2/3--3-3--3-3--3-3/5--5-5--5-5--3-2/3--2-|
B-|--------------------------------------------|
G-|-2-2/4--4-4--4-4--4-4/6--6-6--6-6--4-2/4--2-|
D-|--------------------------------------------|

        B               C#         F#
e-|-2-2/3--3-3--3-3--3-3/5--5-5--5-5--3-2/3----|
B-|------------------------------------------7-|
G-|-2-2/4--4-4--4-4--4-4/6--6-6--6-6--4-2/4----|
D-|------------------------------------------7-|

           D#m          B
e-|---5--------------------------------|
B-|-7---7--3/5--3----2-2/3--3-3--3-3---|
G-|---6--------------------------------|
D-|-7---7--4/5--4----2-2/4--4-4--4-4---|

       C#              F#
e-|---------------2------|
B-|-3-3/5-3-5-3-5------3-|
G-|---------------2------|
D-|-4-4/5-4-5-4-5------4-|


CORO:
               B          C#
         Y en medio de...fusión se alzaba tu ban...
e-|------0--2--3-------3------------0---|
B-|---3--2--3--3---3-----3------2-----2-|
G-|---2----------0---0--------2---2-----|
D-|-------------------------------------|
A-|-------------------------0-----------|
E-|------------3------------------------|

    F#                   B           C#
...dera             se enarbolaba...sol diciéndome que...
e-|--------2-------0--2--3-------3------------5---|
B-|-----3----3--3--2--3--3---3-----3------2-----2-|
G-|---2---2-----2----------0---0--------2---2-----|
D-|-0---------------------------------------------|
A-|-----------------------------------0-----------|
E-|----------------------3------------------------|

     F#                   D#m
...fuera, y a...siguiera
e-|--------2-------------2------------2---|
B-|-----3----3-------3-----3------3-----3-|
G-|---2---2--------4---4--------4---4-----|
D-|-0-------------------------------------|
A-|--------------2------------2-----------|
E-|---------------------------------------|

     B                      C#                F#
Y así me...en la cruz Y...dito amor
e-|---------3-------------5-----------2-----|
B-|-----3-----3-------2-----2-----3-----3---|
G-|---0---0---------2---2-------2---2-------|
D-|---------------------------0-------------|
A-|---------------0-------------------------|
E-|-3---------------------------------------|

   D#m          B           C#            F#
            Y asi me...en la cruz y...dito amor
e-|---------2-----------3-----------5------------2---|
B-|-----3-----3-----3-----3-----2-----2------3-----3-|
G-|---4---4-------0---0-------2---2--------2---2-----|
D-|--------------------------------------0-----------|
A-|-2-----------------------0------------------------|
E-|-------------3------------------------------------|

   D#m          B           C#              F#
            Y asi me...en la cruz y...dito amor
e-|---------2-----------3----0---------------2--|
B-|-----3-----3-----3-----3--2---------------3--|
G-|---4---4-------0---0------2---------------2--|
D-|------------------------------------------0--|
A-|-2------------------------0------------------|
E-|-------------3-------------------------------|


ACORDES USADOS:
( Las lineas en el 4to. traste es para identificar el capo)

                F#

      3    4    5    6    7    8
e-| |----|-||-|----|-
Suggest correction
Give kudos to tab author, rate the tab!
1 2 3 4 5
comments
print report bad tab
guest
You may want to rate the tab now too:
select rating
Wanna post a correction for this tab? Suggest correction