Oops, an error
Loading. Please wait.

Tu Bandera Chords

version 1
version 1

Whole song

443 views 6 this week
no commentswrite comment
1 2 3 4 5
1 last vote to show rating
add to favorites
×
Save as Personal and add changes to this tab that will be seen only by you. Learn more ›
×
You can save this tab as Personal to edit and correct it or add notes. All changes will be seen only by you. Learn more »
save as personal
new!
launch autoscroll
font size
0
reset
transpose
0
reset
simplify chords
display chords
guitar tuner
Autoscroll
slow
fast
+/-
esc
set tempo
stop
Strumming
There is no strumming pattern for this song yet. and get +5 IQ
Tono Original: F#
Tono Capo 4° traste: D

El acorde dentro del paréntesis es el que tienes que hacer
si no posees capotraste. (o si quieres tocarlo en otro instrumento)

El acorde que está afuera del paréntesis es el acorde que va
si colocas el capotraste en el 4rto traste.


 D (F#)             A (C#)              Bm (D#m)
Como en un país extraño me encontre sin ti
 G (B)           D/F# (F#/Bb)             A (C#)
No entendia el idioma ni las cosas que viví
   D (F#)             A (C#)                 Bm (D#m)
Y corrí a buscar sin ver tu rostro entre la gente
               G (B)           D/F# (F#/Bb)             A (C#)
y aun sin conocerte convencido estaba de encontrarte a ti
G (B)                 D (F#)
     de encontrarte a ti

[CORO]
      G (B)            A (C#)               D (F#)
Y en medio de mi confusión se alzaba tu bandera
   G (B)              A (C#)             D (F#)      A(C#)      Bm (D#m)
Señal volaba como el sol diciendome que fuera y a ti te   siguiera
    G (B)                A (C#)         G (B)    D (F#)
y asi me refugie en la cruz y en tu bendito    amor


 D (F#)           A (C#)                Bm (D#m)
Nunca imagine la vida que ahora vivo en ti
 G (B)               D/F# (F#/Bb)         A (C#)
Ni la gracia que me diste cuando a ti volvi
 D (F#)              A (C#)               Bm (D#m)
Mas ahora se que en ti yo tengo lo que anhelo
             G (B)            D/F# (F#/Bb)        A (C#)
tengo vida plena, tengo paz eterna si te tengo a ti
G (B)                 D (F#)
       Si te tengo a ti

[CORO]
      G (B)            A (C#)               D (F#)
Y en medio de mi confusión se alzaba tu bandera
   G (B)              A (C#)             D (F#)      A(C#)      Bm (D#m)
Señal volaba como el sol diciendome que fuera y a ti te   siguiera
    G (B)                A (C#)         G (B)    D (F#)
y asi me refugie en la cruz y en tu bendito    amor


Acorde desconocido: F#/Bb

|-----|-----|-----|-----||||||||||||
|-----|-----|-----|--O--||          ||
|--O--|-----|-----|-----|||||||||||||||
|-----|--O--|-----|-----|||||||||||||||
|-----|-----|--O--|-----||          ||
|-----|-----|-----|-----||||||||||||


Solo->
        G         A    G  D

e--1-1/3-3-3-3--5-5-5--1--1--2--
B--0--0--0-0-0--2-2-2--0--0--3--
G-------------------------------
D-------------------------------
A-------------------------------
E-------------------------------

e-1-1/3-3-3-3--5-5-5--1--1--2--2-5---------
B-0--0--0-0-0--2-2-2--0--0--3--3-2---5-5--3-
G------------------------------------0-0--2-
D-------------------------------------------
A-------------------------------------------
E-------------------------------------------

e-------------------------------
B-2-3--3-3-3-5-3-5-5/7---3------
G-2-2--2-2-2-2-2-2-2/4---2------
D-------------------------------
A-------------------------------
E-------------------------------

 Las tabs están Con el capo en el 4° traste

Dios les Bendiga, Hermosa Canción!
Suggest correction
Give kudos to tab author, rate the tab!
1 2 3 4 5
comments
print report bad tab
guest
Wanna post a correction for this tab? Suggest correction