Oops, an error
Loading. Please wait.

Tu Bandera Tab

version 3
version 3

Whole song

77 views 1 this week
no commentswrite comment
1 2 3 4 5
3 more votes to show rating
add to favorites
launch autoscroll
font size
0
reset
how to read this tab
guitar tuner
Autoscroll
slow
fast
+/-
esc
set tempo
stop
Help us to improve Ultimate-Guitar.com Take our survey!
×
Capo
4th fret
27/Diciembre/2013/Viernes

 ¡Acordes Originales!
 ((Click en Calidad))


Capo 4to traste

    G  F#m  Em7  A/C#  E  F#7
1|--3---2----x----0----0-------
2|--3---2----3----2----0---3---
3|--4---2----0----0----0---5---
4|--5---4----0----x----2---4---
5|--x---x----2----4----x-------
6|-----------------------------

Intro:
   D            A            Bm
1|---------2------------0------------2------------2----
2|-----3-----3------2-----2------3-----3------3-----3--
3|---2---2--------2---2--------4---4--------4---4------
4|-0---------------------------------------------------
5|--------------0------------2------------2------------
6|-----------------------------------------------------
   G            F#m          A             A7
1|---------3------------2------------2---------
2|-----3-----3------2-----2------2-----0---2---
3|---4---4--------2---2--------2---2-------0---
4|-5------------4--------------------------2---
5|---------------------------0-------------0---
6|---------------------------------------------

--Verso--
  Como en un país extraño me encontré sin ti,
   D                A                      Bm
1|---------2---------------0----------------------2------------2---
2|-----3-----3----------2----2-----------------3----3-------3----3-
3|---2---2------------2---2------------------4---4--------4---4----
4|-0---------------------------------------------------------------
5|------------------0----------------------2------------2----------
6|-----------------------------------------------------------------

  no entendía el idioma ni las cosas que viví
   G                    F#m          A             A7  Em7  A/C#
1|---------3--------------------2------------2---------------0--
2|-----3-----3--------------2-----2------2-----0---2----3----2--
3|---4---4----------------2---2--------2---2-------0----0----0--
4|-5--------------------4--------------------------2----0----x--
5|-----------------------------------0-------------0----2----4--
6|--------------------------------------------------------------

  y corrí a buscar sin ver tu rostro entre la gente, y aún sin
   D                   A                      Bm
1|---------2-------------------0----------------------2------------2---
2|-----3-----3-------------2-----2-----------------3----3-------3----3-
3|---2---2---------------2---2-------------------4---4--------4---4----
4|-0-------------------------------------------------------------------
5|---------------------0-----------------------2------------2----------
6|---------------------------------------------------------------------

conocerte convencido estaba de encontrarte a ti,
     G                  E                  A
1|-----------3------------------0------------------0----
2|-------3-----3------------0-----0------------2-----2--
3|-----4---4--------------0---0--------------2---2------
4|---5------------------2-------------------------------
5|-----------------------------------------0------------
6|------------------------------------------------------

    de encontrarte a ti...
   G               D             F#7
1|---------3---------------3---------0---2----
2|-----3-----3---------3-----3---3------------
3|---4---4-----------2---2---------5---5---5--
4|-5---------------0-------------4------------
5|--------------------------------------------
6|--------------------------------------------


--Coro--

Y en medio de mi confusión se alzaba tu bandera,
      G                 A                   D             F#7
1|------------3-----------------0-------------------3---------0---2---
2|--------3-----3-----------2-----2-------------3-----3---3-----------
3|------4---4-------------2---2---------------2---2---------5---5---5-
4|----5-------------------------------------0-------------4-----------
5|----------------------0---------------------------------------------
6|--------------------------------------------------------------------

se enarbolaba como el sol diciéndome que fuera y a ti te
     G                 A                  D
1|-----------3-----------------0------------------0----
2|-------3-----3-----------2-----2------------3-----3--
3|-----4---4-------------2---2--------------2---2------
4|---5------------------------------------0------------
5|---------------------0-------------------------------
6|-----------------------------------------------------

siguiera     y así me refugie en la cruz y en tu bendito amor...
    Bm           G                    A                  D             A7
1|----------2------------3--------------------2------------------3--------
2|------3-----3------3-----3--------------2-----2------------3-----3---2--
3|----4---4--------4---4----------------2---2--------------2---2-------0--
4|---------------5---------------------------------------0-------------2--
5|--2---------------------------------0--------------------------------0--
6|------------------------------------------------------------------------

Intro:
   D            A            Bm
1|---------2------------0------------2------------2----
2|-----3-----3------2-----2------3-----3------3-----3--
3|---2---2--------2---2--------4---4--------4---4------
4|-0---------------------------------------------------
5|--------------0------------2------------2------------
6|-----------------------------------------------------
   G            F#m          A             A7
1|---------3------------2------------2-------------0--
2|-----3-----3------2-----2------2-----0---2---3---2--
3|---4---4--------2---2--------2---2-------0---0---0--
4|-5------------4--------------------------2---0---x--
5|---------------------------0-------------0---2---4--
6|----------------------------------------------------

--Verso--
  Nunca imaginé la vida que ahora vivo en ti
   D                A                      Bm
1|---------2---------------0----------------------2------------2----
2|-----3-----3----------2----2-----------------3----3-------3----3--
3|---2---2------------2---2------------------4---4--------4---4-----
4|-0----------------------------------------------------------------
5|------------------0----------------------2------------2-----------
6|------------------------------------------------------------------

  ni la gracia que me diste cuando a ti volví,
   G                    F#m               A             A7
1|---------3--------------------2-----------------2-------------0--
2|-----3-----3--------------2-----2-----------2-----0---2---3---2--
3|---4---4----------------2---2-------------2---2-------0---0---0--
4|-5--------------------4-------------------------------2---0---x--
5|----------------------------------------0-------------0---2---4--
6|-----------------------------------------------------------------

  mas ahora se que en ti yo tengo lo que anhelo,
   D                   F#m                 Bm
1|---------3-------------------2-------------------2-------
2|-----3-----3-------------2-----2-------------3-----3-----
3|---2---2---------------2---2---------------4---4------4--
4|-0-------------------4-----------------------------------
5|-----------------------------------------2---------------
6|---------------------------------------------------------

    tengo vida plena tengo paz eterna si te tengo a ti,
                 G               E                A
1|-----------------------3---------------0----------------0---
2|---2-----3---------3-----3---------0-----0----------2-----2-
3|-----------------4---4-----------0---0------------2---2-----
4|---------------5---------------2----------------------------
5|------------------------------------------------0-----------
6|------------------------------------------------------------

     si te tengo a ti...
   G             D             F#7
1|---------3-------------3---------0---2----
2|-----3-----3-------3-----3---3------------
3|---4---4---------2---2---------5---5---5--
4|-5-------------0-------------4------------
5|------------------------------------------
6|------------------------------------------

--Coro--
Y en medio de mi confusión se alzaba tu bandera
      G                 A                   D
1|------------3-----------------0-------------------3---------0---2---
2|--------3-----3-----------2-----2-------------3-----3---3-----------
3|------4---4-------------2---2---------------2---2---------5---5---5-
4|----5-------------------------------------0-------------4-----------
5|----------------------0---------------------------------------------
6|--------------------------------------------------------------------

se enarbolaba como el sol diciéndome que fuera y a ti te
     G                 A                  D
1|-----------3-----------------0------------------0----
2|-------3-----3-----------2-----2------------3-----3--
3|-----4---4-------------2---2--------------2---2------
4|---5------------------------------------0------------
5|---------------------0-------------------------------
6|-----------------------------------------------------

siguiera    y así me refugie en la cruz y en tu bendito amor...
    Bm          G                  A                  D            F#7
1|----------2-----------3------------------2------------------3--------0---2---
2|------3-----3-----3-----3------------2-----2------------3-----3--3-----------
3|----4---4-------4---4--------------2---2--------------2---2--------5---5---5-
4|--------------5-------------------------------------0------------4-----------
5|--2------------------------------0-------------------------------------------
6|-----------------------------------------------------------------------------

Solo:

1|-2--2h3--3-3-3-3-3--3/5--5-5-5-5--4--2h3-2--
2|--------------------------------------------
3|-2--2h4--4-4-4-4-4--4/6--6-6-6-6--5--2h4-2--
4|--------------------------------------------
5|--------------------------------------------
6|--------------------------------------------

1|-2--2h4--3-3-3-3-3--3/5--5-5-5-5--4--2h3-2--2-5---------------
2|------------------------------------------------7--3h5--3-----
3|-2--2h4--4-4-4-4-4--4/6--6-6-6-6--5--2h4-2--2-6---------------
4|------------------------------------------------7--5----4-----
5|--------------------------------------------------------------
6|--------------------------------------------------------------

1|----------------------------------
2|-2-3--3-3-3-3-3--5--3-5-3-5--7-3--
3|-2-4--4-4-4-4-4--4----------------
4|--------------------4-6-4-6--7-4--
5|----------------------------------
6|----------------------------------

--Coro--

Y en medio de mi confusión se alzaba tu bandera
      G                 A                   D             F#7
1|------------3-----------------0-------------------3---------0---2---
2|--------3-----3-----------2-----2-------------3-----3---3-----------
3|------4---4-------------2---2---------------2---2---------5---5---5-
4|----5-------------------------------------0-------------4-----------
5|----------------------0---------------------------------------------
6|--------------------------------------------------------------------

se enarbolaba como el sol diciéndome que fuera y a ti te
     G                 A                  D
1|-----------3-----------------0------------------0----
2|-------3-----3-----------2-----2------------3-----3--
3|-----4---4-------------2---2--------------2---2------
4|---5------------------------------------0------------
5|---------------------0-------------------------------
6|-----------------------------------------------------

siguiera               y así me refugie en la cruz y en tu bendito amor...
    Bm                      G                  A                  D
1|----------2-----------2-----------3------------------0------------------3---
2|------3-----3-----3-----3-----3-----3------------2-----2------------3-----2-
3|----4---4-------4---4-------4---4--------------2---2--------------2---2-----
4|--------------------------5-------------------------------------0-----------
5|--2-----------2------------------------------0------------------------------
6|----------------------------------------------------------------------------

            y así me refugié en la cruz y en tu bendito amor
                G                    A                  D
1|---------2------------3--------------------0------------------3---
2|-----3-----3------3-----3--------------2-----2------------3-----3-
3|---4---4--------4---4----------------2---2--------------2---2-----
4|--------------5---------------------------------------0-----------
5|-2---------------------------------0------------------------------
6|------------------------------------------------------------------

            y así me refugié en la cruz y en tu bendito a...mor
   Bm           G                    A                       D
1|---------2------------3------------0-----------------------2--
2|-----3-----3------3-----3----------2-----------------------3--
3|---4---4--------4---4--------------2-----------------------2--
4|--------------5--------------------2-----------------------0--
5|-2---------------------------------0--------------------------
6|--------------------------------------------------------------

Si tienes duda agregame

Saludos desde Chiapas-México
Suggest correction
Give kudos to tab author, rate the tab!
1 2 3 4 5
comments
print report bad tab
guest
You may want to rate the tab now too:
select rating
Wanna post a correction for this tab? Suggest correction