Oops, an error
Loading. Please wait.

Tu Nos Creaste Bass Tab

23 views 1 this week
no commentswrite comment
1 2 3 4 5
3 more votes to show rating
add to favorites
launch autoscroll
font size
0
reset
guitar tuner
Autoscroll
slow
fast
+/-
esc
set tempo
stop
Help us to improve Ultimate-Guitar.com Take our survey!
×
TU NOS CREASTE CON UN PROPOSITO

G:------------------------------
D:------------------------------
A:-0-0-0-0-0-0--7-7-7-6-5-4-3-2-
E:------------------------------

PARA TU NOMBRE GLORIFICAR

G:-----------------------
D:-----------------------
A:-0--0-0-0-2-2----------
E:-----------------------

Y CADA DIA SOBRE LA TIERRA

G:------------------------------
D:------------------------------
A:-0-0-0-0-0-0--7-7-7-6-5-4-3-2-
E:------------------------------

PROCLAMAREMOS TU MAJESTAD

G:---------------
D:---------------
D:---------2-2---
E:-2--2-2--------

TU NOS CREASTE PARA ALABARTE

G:------------------------------
D:------------------------------
A:-0-0-0-0-0-0--7-7-7-6-5-4-3-2-
E:------------------------------

PARA TU GLORIA MANIFESTAR

G:-----------------------
D:-----------------------
A:-0--0-0-0-2-2----------
E:-----------------------

Y CADA DIA SOBRE LA TIERRA

G:------------------------------
D:------------------------------
A:-0-0-0-0-0-0--7-7-7-6-5-4-3-2-
E:------------------------------

ANUNCIAREMOS TU GRAN BONDAD

G:---------------
D:---------------
D:---------2-2---
E:-2--2-2--------

(CORO)
QUEREMOS DARTE GLORIA Y HONOR

G:-----------------
D:-----------------
A:-0--0-0--0-0-2-2-
E:-----------------

QUEREMOS DARTE LA ADORACION

G:-------------------
D:-------------------
A:-2--2-2--2-2-0-0---
E:-------------------

QUEREMOS EXALTARTE POR SIEMPRE

G:-----------------
D:-----------------
A:-0--0-0--0-0-2-2-
E:-----------------

A TUS PIES RINDO TODO LO QUE TENGO SEÑOR

G:-------------------------------------
D:-------------------------------------
A:-5-5-5-5-5-5-0-0-0-0-0-0-7-7-7-------
E:-------------------------------0-0-0-

Y MI DEVOCION ENTERA SOLO A TI TE LA DOY

G:-------------------------------------
D:-------------------------------------
A:-5-5-5-5-5-5-------------------------
E:-------------5-5-5-5-5-5s-7-7-7-7-7--

POR SIEMPRE, Y SIEMPRE, POR SIEMPRE Y SIEMPRE

G:--------------------------
D:--------------------------
A:-0--0-0---2-2---0-0--2-2--
E:--------------------------
Suggest correction
Give kudos to tab author, rate the tab!
1 2 3 4 5
comments
print report bad tab
guest
You may want to rate the tab now too:
select rating
Wanna post a correction for this tab? Suggest correction