Oops, an error
Loading. Please wait.

Un Destello De Tu Gloria Chords

version 2
version 2

Whole song

Interactive

106 views 3 this week
no commentswrite comment
1 2 3 4 5
3 more votes to show rating
add to favorites
launch autoscroll
font size
0
reset
transpose
0
reset
simplify chords
display chords
guitar tuner
×
Best way to learn
"Un Destello De Tu Gloria"
Autoscroll
slow
fast
+/-
esc
set tempo
stop
El guitarrista de Jesus Adrian Romero tiene su guitarra afinada en
medio tono mas baja (el la toca con capo en el 3er traste en el video
original)...pero = se puede tocar si tienes tu guitarra afinada en
MI como es comunmente EBGDAE)solo que deben poner el CAPODASTRO o
CEJILLO en el 2 traste y tocar con las siguientes notas:


 Capo 2do
  traste     G                   Dadd9                   D
----||-------3----    ----||-------0------   ----||------2-------
----||-------0----    ----||-------3------   ----||------3-------
----||-------0----    ----||-------2------   ----||------2-------
----||-------0----    ----||-------0------   ----||------0-------
----||-------2----    ----||-------x------   ----||------x-------
----||-------3----    ----||-------x------   ----||------x-------

            Em7                  Asus/C ----> C9
----||-------0----    ----||-------0----------0--
----||-------3----    ----||-------3----------3--
----||-------0----    ----||-------0h2--------0--
----||-------2----    ----||-------2----------2--
----||-------2----    ----||-------3----------3--
----||-------0----    ----||-------x----------x--

           Bmaj7                 Bm7                     C
----||-------2----    ----||------2-------   ----||------0-------
----||-------4----    ----||------3-------   ----||------1-------
----||-------2----    ----||------2-------   ----||------0-------
----||-------4----    ----||------4-------   ----||------2-------
----||-------2----    ----||------2-------   ----||------3-------
----||-------2----    ----||------2-------   ----||------x-------

           Am7
----||------0-------
----||------1-------
----||------0-------
----||------2-------
----||------0-------
----||------x-------


Intro: G - Dadd9 - Em7 - Asus/C, C9

G                       Bm7       Em7
Por un momento en tu presencia aahh
                       C
por un instante de tu amor.
G                      Bm7      Em7
por un destello de tu gloria aahh
                    Asus/C, C9
por un minuto nada mas...


Puente:
        G             D, Dadd9
Todo daria, no importaria
        Am7
Lo que tenga que pasar,
        G             D  C9
lo que tenga que esperar...


     Dadd9          G          Bmaj7
...tengo hambre de ti, de tu presencia
         Em               C
de tu fragancia, de tu poder
             G            Bmaj7
hambre que duele,que debilita
         Em        C
que desespera por ti
                 G   Bmaj7
tengo hambre de ti uohh
          Em7      C
hambre de ti señor
              G   Bmaj7
tengo hambre de ti uohh
          Em7    C, Em , Am7 , Dadd9, G
hambre de ti señor.


Bueno espero que les guste y sea de bendicion, este tema lo saque
porque que no encontraba un tab con las notas originales en la web
como todos hacemos xD), y me gusta bastante y lo subo para compartirlo
con ustedes...esta sacado de la version original (video concierto)
y suena = si la tocan con el rasgueo correspondiente y uno que otro
adorno que se le debe dar si tienen buen oido...Dios los Bendiga, y
que la gloriay honra sea siempre para ÉL!!

Atte. Samuel...Canal de Youtube pelo619 ;)
Suggest correction
Give kudos to tab author, rate the tab!
1 2 3 4 5
comments
print report bad tab
guest
You may want to rate the tab now too:
select rating
Wanna post a correction for this tab? Suggest correction