Oops, an error
Loading. Please wait.

Un Minuto En Tu Presencia Tab

19 views 1 this week
no commentswrite comment
1 2 3 4 5
3 more votes to show rating
add to favorites
launch autoscroll
font size
0
reset
how to read this tab
guitar tuner
×
Best way to learn
"Un Minuto En Tu Presencia"
Autoscroll
slow
fast
+/-
esc
set tempo
stop
este es el requinto de la albanza

E----7-9-9--7-7--5-7-4-5-
B--5----------------------
G------------------------

E----7-9-9-7-7--5-5--
B-5------------------
G---------------------

E----7-9-9--7-7--5-7-4-5-
B--5----------------------
G------------------------

E----7-9-9-7-7--5-5--
B-5------------------
G--------------------

PRECORO:


E-5-7-9-9-9---12-10-9-9-7--
B---------------------------
G--------------------------


E-7-5-7-5-7-9-5/---7-5-7-5-7-5-4----
B--------------/--------------------
G--------------/--------------------

CORO:

E--5-5-5--7-9-9---12-10-9-9-7-
B-----------------------------
G----------------------------

E-10-9-7-7-5/-----5-7-9-5-----
B------------/-----------------
G-------------/---------------

E-10-10-10-9-9-/--12-10-9-9-7---
B--------------/------------------
G----------------------------

E-10-9-7-7-5---9--5--------
B---------------------------
G---------------------------


ESPERO K LES GUSTE. DIOS LES BENDIGA
"MINISTERIOS RIOS DE AGUA VIVA"
SALUDOS A TODOS LOS HERMANOS
DE DIOS DE LA PROFECIA
Suggest correction
Give kudos to tab author, rate the tab!
1 2 3 4 5
comments
print report bad tab
guest
You may want to rate the tab now too:
select rating
Wanna post a correction for this tab? Suggest correction