Oops, an error
Loading. Please wait.

Vuelve A Llamar Tab

100 views 1 this week
no commentswrite comment
1 2 3 4 5
3 more votes to show rating
add to favorites
launch autoscroll
font size
0
reset
how to read this tab
guitar tuner
×
Best way to learn
"Vuelve A Llamar"
Autoscroll
slow
fast
+/-
esc
set tempo
stop
el intro originalmente lo hace el piano, pero
aqui se los dejo en la guitarra k tambien se
escucha bien, espero y les guste


 e ------------------------
 B -----------------------
 G -12-11-12-12-- 11-12---
 D -------------------12----
 A -----------------------
 E ------------------------


 E --------------------------------
 A --------------------------------
 D ---------------------------------
 G -12-11-12-12-----11-12------------
 B ------------------------15--------
 e ----------------------------------


 Dadd4

 E ------------------------
 A ------------------------
 D ------------------------
 G -12-11-12-12----11-7s9---
 B ------------------------
 e ------------------------

(esto ultimo lo hace la guitarra)
 E ----------------------
 A ---------------------
 D --------------------
 G ----12-11---------------
 B -12---------------------
 e ----------------------


dios les bendiga, ESPERO K LES GUSTE  "RIOS DE AGUA VIVA"
Suggest correction
Give kudos to tab author, rate the tab!
1 2 3 4 5
comments
print report bad tab
guest
You may want to rate the tab now too:
select rating
Wanna post a correction for this tab? Suggest correction