Oops, an error
Loading. Please wait.

Oh Corazón Tab

by Jez
8 views 1 this week
no commentswrite comment
1 2 3 4 5
3 more votes to show rating
add to favorites
launch autoscroll
font size
0
reset
how to read this tab
guitar tuner
×
Best way to learn
"Oh Corazón"
Autoscroll
slow
fast
+/-
esc
set tempo
stop
Esta es la transcripsion esta muy buena la rola
pero soy nobato en esto de la musica asi que cualquier
error me disculpan.

La cancion va en E todabia no saco los acordes Sorry!!
este es el arpegio o punteo que ocupan va en C#m
es de escuchar bien la cancion para saber el cambio:

e|--4-------4--
B|----5---5---- cuando cambia al segundo entra la voz
G|------6------
D|-------------

¡Oh Corazon...
e|-------------5-------5--|--4-------4--|
B|---------------5---5----|----5---5----|
G|-----------------6------|------6------|
D|------------------------|-------------|

e|--2-------2--
B|----5---5---- vuelve al primero
G|------6------
D|-------------

tambien lo pueden sacar en la Emayor pero en la forma de Bmayor
y es un poco mas facil pero queda a opcion:

e|----------------------|---------------------|
B|-------9---------9----|------10-------10----|
G|-----9---9-----9---9--|----9----9---9----9--|
D|----------------------|---------------------|
A|--7---------7---------|--7--------7---------|

e|----------------------|----------------------|
B|-------9---------9----|-------7---------7----|
G|-----9---9-----9---9--|-----9---9-----9---9--|
D|----------------------|--9---------9---------|
A|--7---------7---------|----------------------|

Esto es todo pero que esto les anime a sacarla bien y a corregirme
algu duda pueden contactarme a mi correo:
alex_osorio04@
Chao Bendiciones de arriba y apoyen a Jez comprenle el disco
Suggest correction
Give kudos to tab author, rate the tab!
1 2 3 4 5
comments
print report bad tab
guest
You may want to rate the tab now too:
select rating
Wanna post a correction for this tab? Suggest correction