Oops, an error
Loading. Please wait.

Como Un Gorrión Tab

76 views 1 this week
no commentswrite comment
1 2 3 4 5
3 more votes to show rating
add to favorites
launch autoscroll
font size
0
reset
how to read this tab
guitar tuner
Autoscroll
slow
fast
+/-
esc
set tempo
stop
Help us to improve Ultimate-Guitar.com Take our survey!
×
Intro

|--2--3--5--5--3--2--2h3-----2--0---------------------------------|
|-------------------------3---------2--0--2--3---5----------------|
|---------------------0-------------------------------------------|
|--0--------------------------------------------------------------|
|-----------3-------------------0---------------------------------|
|-----------------------------------------------------------------|


|-2---0-----0-----------------------------------------------------|
|--------2----------3---1--1--0--0h1--3----2h0--2--3---5----------|
|----------------0------------------------------------------------|
|-0---------------------------------------------------------------|
|-----------3-----------3-----------------0-----------------------|
|-----------------------------------------------------------------|


D         C           A
Es menuda como un soplo
D           Em7     A
y tiene el pelo marrón
  G                        D
y un aire entre tierno y triste
 Em7         A
como un gorrión.

 D             C          A
Le gusta andar por las ramas
D         Em7       A
ir de balcón en balcón
         G             D
sin que nadie le eche mano
 Em7         A
como un gorrión.

 D                   A
Nació libre como el viento
    D7              G A A7
no tiene amo ni patro-o-ón
D                  A7                D
y se mueve por instinto como un gorrión.


Pajarillo pardo
          D7             G
en la carrera de San Bernardo
          A7            D
quedó tu nido seco y vacío
    B7      Em      A7    D
quiza algún niño ya lo robó.


Pajarillo errante
            D7             G
que bebe el agua de los estanques
         A7            D
y de mi mano jamás comió.

D        C           A
Y no le vende al alpiste
 D        Em7       A
su color ni su canción
 G                   D
por ahí busca su lechuga
 Em7         A
como un gorrión.

D            C       A
Y le da pena el canario
 D         Em7         A
pero no envidia un halcón
 G                D
le gusta volar bajito
Em7          A
como un gorrión.

D                   A
Y tutearse con las nubes
   D7              G A A7
y dormir en el rinco-o-ón
 D                   A7
donde no llegan los gatos
             D
como un gorrión.

Pajarillo pardo
          D7             G
en la carrera de San Bernardo
          A7            D
quedó tu nido seco y vacío
    B7      Em      A7    D
quiza algún niño ya lo robó.


Pajarillo errante
            D7             G
que bebe el agua de los estanques
         A7            D
y de mi mano jamás comió.


----------------------------------------------------
espero q les suene.
cualqier duda contactenme pepe_bolaso@
Suggest correction
Give kudos to tab author, rate the tab!
1 2 3 4 5
comments
print report bad tab
guest
You may want to rate the tab now too:
select rating
Wanna post a correction for this tab? Suggest correction