Oops, an error
Loading. Please wait.

Tío Alberto Tab

133 views 1 this week
no commentswrite comment
1 2 3 4 5
3 more votes to show rating
add to favorites
launch autoscroll
font size
0
reset
how to read this tab
guitar tuner
Autoscroll
slow
fast
+/-
esc
set tempo
stop
Esta es la introducción de Tio Alberto 1\2 tono más alto 
que la original por Joan Manuel Serrat.


e-5-3-2-3--3-1-0-1------1-0-0-3-2-3-|
B---------------------3-------------|
G-------------------2---------------|
D-----------------------------------|
A-----------------------------------|
E-----------------------------------|


e---0-1-3-5-3-2-3-3-1-0-|-----1------0------------0--------|
B-3---------------------|---3------3----3-------2---2------|
G-----------------------|--------1--------1---0-------0----|
D-----------------0-0-0-|-0------------------------------0-|
A-----------------------|-------------------0--------------|
E-----------------------|------0---------------------------|
Suggest correction
Give kudos to tab author, rate the tab!
1 2 3 4 5
comments
print report bad tab
guest
Wanna post a correction for this tab? Suggest correction