Oops, an error
Loading. Please wait.

Hey You (Español) Tab

271 views 1 this week
no commentswrite comment
1 2 3 4 5
3 more votes to show rating
add to favorites
×
Save as Personal and add changes to this tab that will be seen only by you. Learn more ›
×
You can save this tab as Personal to edit and correct it or add notes. All changes will be seen only by you. Learn more »
save as personal
new!
launch autoscroll
font size
0
reset
how to read this tab
guitar tuner
Autoscroll
slow
fast
+/-
esc
set tempo
stop
(Intro)


   ~~+
e. ------------------|
B. ------------------|
G. ------------------|
D. ------------------|
A. -2----------------|
E. ------------------|

(PM)
    Em
e. -------------------------|
B. -------------------------|
G. -------------------------|
D. -----------------------0-|
A. -2-0-2---2-0-2---2-0-2---|
E. -------0-------0---------|

    Em
e. -----------------------------------------|
B. -----------------------------------------|
G. -----------------------------------------|
D. -------------------------------0---------|
A. -2-0-2---2-0-2---2-0-2---2-0-2---2-0-2---|
E. -------0-------0-------0---------------0-|


    Em
Hey tú, tú el del espejo en la pared.

Sí, tú, me vas a escuchar después de todo
D           G   D           G
He sido herido, mira mi herida
           B7                                         Em
Pero esta noche quiero cantar, quiero bailar, bajo la luna
          B7                                           Em
Sí, esta noche voy a cantar, voy a bailar, voy a ser feliz.

(PM)
    Em
e. -------------------------|
B. -------------------------|
G. -------------------------|
D. -----------------------0-|
A. -2-0-2---2-0-2---2-0-2---|
E. -------0-------0---------|

    Em
e. -----------------------------------------|
B. -----------------------------------------|
G. -----------------------------------------|
D. -------------------------------0---------|
A. -2-0-2---2-0-2---2-0-2---2-0-2---2-0-2---|
E. -------0-------0-------0---------------0-|


    Em
Hey tú, no finjas que no te importa

Sí, tú, has estado tropezando aquí y tropezando allá
  D            G     D           G
Y he sido utilizado, he sido abusado.
           B7                                            Em
Pero esta noche quiero cantar, quiero bailar, no hay excusas.
          B7                                           Em
Sí, esta noche voy a cantar, voy a bailar, voy a ser feliz.

(PM)
    Em
e. -------------------------|
B. -------------------------|
G. -------------------------|
D. -----------------------0-|
A. -2-0-2---2-0-2---2-0-2---|
E. -------0-------0---------|

    Em
e. -----------------------------------------|
B. -----------------------------------------|
G. -----------------------------------------|
D. -------------------------------0---------|
A. -2-0-2---2-0-2---2-0-2---2-0-2---2-0-2---|
E. -------0-------0-------0---------------0-|


Em

Hey, hey, hey you


(Intermedio)

e. ---3-2/3/2-----3-2/3/2-----3-2-5-8-7/5-3-2/0-----------|
B. -0---------0-0---------0-0-------------------3---------|
G. -------------------------------------------------------|
D. -------------------------------------------------------|
A. -------------------------------------------------------|
E. -------------------------------------------------------|

                                                                           ^
e. ---3-2/3/2-----3-2/3/2-----3-2-7-8-7/5-3-2/0-----------|
B. -0---------0-0---------0-0-------------------3---------|
G. -------------------------------------------------------|
D. -------------------------------------------------------|
A. -------------------------------------------------------|
E. -------------------------------------------------------|

                                  ^
e. ---0-2-3-5-5/7--5/3-2---0------------------------------|
B. -3--------------------0---3-0--------------------------|
G. -------------------------------------------------------|
D. -------------------------------------------------------|
A. -------------------------------------------------------|
E. -------------------------------------------------------|


e. -------------------------------------------------------|
B. ---------0-0-------------------------------------------|
G. -----0-2-------2-2/0-----------------------------------|
D. -2-4-----------------2-0-2-----------------------------|
A. -------------------------------------------------------|
E. -------------------------------------------------------|

    Em
Sí, tú, tú el del espejo en la pared.

Sí, tú, me vas a escuchar después de todo
D           G   D           G
He sido herido, mira mi herida
           B7                                         Em
Pero esta noche quiero cantar, quiero bailar, bajo la luna
          B7                                           Em
Sí, esta noche voy a cantar, voy a bailar, voy a ser feliz.

(PM)
    Em
e. -------------------------|
B. -------------------------|
G. -------------------------|
D. -----------------------0-|
A. -2-0-2---2-0-2---2-0-2---|
E. -------0-------0---------|

    Em
e. -----------------------------------------|
B. -----------------------------------------|
G. -----------------------------------------|
D. -------------------------------0---------|
A. -2-0-2---2-0-2---2-0-2---2-0-2---2-0-2---|
E. -------0-------0-------0---------------0-|


(PM)
    Em
e. -------------------------|
B. -------------------------|
G. -------------------------|
D. -----------------------0-|
A. -2-0-2---2-0-2---2-0-2---|
E. -------0-------0---------|

    Em
e. -----------------------------------------|
B. -----------------------------------------|
G. -----------------------------------------|
D. -------------------------------0---------|
A. -2-0-2---2-0-2---2-0-2---2-0-2---2-0-2---|
E. -------0-------0-------0---------------0-|
Suggest correction
Give kudos to tab author, rate the tab!
1 2 3 4 5
comments
print report bad tab
guest
Wanna post a correction for this tab? Suggest correction