Oops, an error
Loading. Please wait.

Lo Dijo El Corazón Tab

version 1
version 1

Whole song

16 views 1 this week
no commentswrite comment
1 2 3 4 5
3 more votes to show rating
add to favorites
launch autoscroll
font size
0
reset
how to read this tab
guitar tuner
×
Best way to learn
"Lo Dijo El Corazón"
Autoscroll
slow
fast
+/-
esc
set tempo
stop
Pues esta es mi favorita de su mas reciente CD, y pues espero
la disfruten como yo la disfrute sacandola. A tocar:

Intro:

1. -------2h3-3-3-2-0-|-2h3-2-3-3/5-2-2-0---|-9h10-10-9-12-10-7-|
2. -----3-------------|-------------------3-|-------------------|
3. ---4---------------|---------------------|-------------------|
4. -5-----------------|---------------------|-------------------|
5. -------------------|---------------------|-------------------|
6. -------------------|---------------------|-------------------|


D                   A        E               A
Algo golpeo mis costillas y me llamo la atencion,
1. ---9-7-5-2h3--|
2. -7------------|
3. --------------|
4. --------------|
5. --------------|
6. --------------|
  D                A      E              A
enorme fue la sorpresa, pues era mi corazon,
1. -------7----|
2. -5-7-5---5--|
3. ------------|
4. ------------|
5. ------------|
6. ------------|
 D                  A       E                  A
me dijo que ya no puede, vivir un dia mas sin verte,
  D             A               E                      A  A7
que no le haga mas al cuento y que no me atenga a mi suerte.

CORO:

 D         A7
Me dijo siguela,
1. -2-0--|
2. -3-2--|
3. -2-2--|
4. -0-2--|
5. ---0--|
6. ------|
                 E7
siguela a donde vaya,
1. -5-5-5\3-3-3-3\2-2-2-2/3--|
2. --------------------------|
3. -5-5-5\3-3-3-3\2-2-2-2/3--|
4. --------------------------|
5. --------------------------|
6. --------------------------|
           A7
me dijo siguela,
                 D
y muerete en la raya.


D         A7
Me dijo siguela,
1. -2-0--|
2. -3-2--|
3. -2-2--|
4. -0-2--|
5. ---0--|
6. ------|
                        E7
que ella es mi luz, mi faro,
1. -5-5-5/7-7-7/8-5-7--|
2. --------------------|
3. -5-5-5/7-7-7/8-5-7--|
4. --------------------|
5. --------------------|
6. --------------------|
           A7
me dijo siguela,
               D
o causaras un paro.

    D         
Me dijo siguela,
                  A7
siguela que la extraño,
           E7
me dijo siguela,
                 A
ya no nos hagas daño.

 A      E           D       A 
Eso me dijo el corazon, oh yeeh,
E               D    A
lo dijo el corazon, yeah,
 E           A 
esa es mi razon.

1. -------2h3-3-3-2-0-|-2h3-2-3-3/5-2-2-0---|-9h10-10-9-12-10-7-|
2. -----3-------------|-------------------3-|-------------------|
3. ---4---------------|---------------------|-------------------|
4. -5-----------------|---------------------|-------------------|
5. -------------------|---------------------|-------------------|
6. -------------------|---------------------|-------------------|

 D                     A      E               A
Yo me hice el desentendido, y al corazon ignore,
  D              A          E                A
inventando mil excusas, le dije que amar no se,
      D                 A     E                       A
el insistio en que no puede, vivir ni un dia mas sin verte,
  D             A               E                      A  A7
que no le haga mas al cuento y que no me atenga a mi suerte.


D         A7
Me dijo siguela,
1. -2-0--|
2. -3-2--|
3. -2-2--|
4. -0-2--|
5. ---0--|
6. ------|
                E7
anda no seas cobarde,
1. -5-5-5\3-3-3-3\2-2-2-2/3--|
2. --------------------------|
3. -5-5-5\3-3-3-3\2-2-2-2/3--|
4. --------------------------|
5. --------------------------|
6. --------------------------|
           A7
me dijo siguela,
                 D
antes que sea tarde.

D         A7
Me dijo siguela,
1. -2-0--|
2. -3-2--|
3. -2-2--|
4. -0-2--|
5. ---0--|
6. ------|
                        E7
que ella es mi luz, mi faro,
1. -5-5-5/7-7-7/8-5-7--|
2. --------------------|
3. -5-5-5/7-7-7/8-5-7--|
4. --------------------|
5. --------------------|
6. --------------------|
                     A7
me dijo siguela, siguela,
               D
o causaras un paro.

    D
Me dijo siguela,
              A7
y sono tan sincero,
           E7
me dijo siguela,
                  A
que sin ella me muero.

A      E           D       A 
Eso me dijo el corazon, oh yeeh,
E               D    A
lo dijo el corazon, yeah,
 E           A 
esa es mi razon.

1. -------2h3-3-3-2-0-|-2h3-2-3-3/5-2-2-0---|-9h10-10-9-12-10-7-|
2. -----3-------------|-------------------3-|-------------------|
3. ---4---------------|---------------------|-------------------|
4. -5-----------------|---------------------|-------------------|
5. -------------------|---------------------|-------------------|
6. -------------------|---------------------|-------------------|


Ahi esta, si quieren otra rola de Joan Sebastian, escribanme. Dudas
o comentarios a mi mail. Saludos a mis compas de la 72: el Beto, el Carlos,
el Misa, el Chaman, el Ocho, el Ariel, el Sergio, y etc. Seguramente estan
pensanso, este wey como tiene mayates pero nomas son mis verdaderos 
compas. Suerte!!!
Suggest correction
Give kudos to tab author, rate the tab!
1 2 3 4 5
comments
print report bad tab
guest
You may want to rate the tab now too:
select rating
Wanna post a correction for this tab? Suggest correction