Oops, an error
Loading. Please wait.

Me Adueñaré De Tí Tab

44 views 1 this week
no commentswrite comment
1 2 3 4 5
3 more votes to show rating
add to favorites
launch autoscroll
font size
0
reset
how to read this tab
guitar tuner
Autoscroll
slow
fast
+/-
esc
set tempo
stop
Help us to improve Ultimate-Guitar.com Take our survey!
×
Está sencillo, nomas escuchen la rola, se oye igual...


1.-6/8---8--8--8--8--8-6----5/6-6-6-6-6-6-5-5/8--
2.-8/10-10-10-10-10-10-8-6--6/8-8-8-8-8-8-6-6/10-
3.-----------------------7-----------------------
4.-----------------------------------------------
5.-----------------------------------------------
6.-----------------------------------------------

1.-6/8---8--8--8--8--8-6----5/6-6-6-6-6-6-5------
2.-8/10-10-10-10-10-10-8-6--6/8-8-8-8-8-8-6-6----
3.-----------------------7------------------5----
4.-----------------------------------------------
5.-----------------------------------------------
6.-----------------------------------------------
Suggest correction
Give kudos to tab author, rate the tab!
1 2 3 4 5
comments
print report bad tab
guest
You may want to rate the tab now too:
select rating
Wanna post a correction for this tab? Suggest correction