Oops, an error
Loading. Please wait.

Melodía Para Dos Tab

93 views 3 this week
no commentswrite comment
1 2 3 4 5
3 more votes to show rating
add to favorites
launch autoscroll
font size
0
reset
how to read this tab
guitar tuner
×
Best way to learn
"Melodía Para Dos"
Autoscroll
slow
fast
+/-
esc
set tempo
stop
Que onda aquí ando espero y esta rola les lata
esta muy chida y, yo creo que con esas notas
se escucha bien también les escribo los adornos
no digan que no esta completa tiene todo.

Joan Sebastian - Melodia para dos


Intro:

e|-4--2-4-5-4-2-1-2------1--1-2-1------|
B|-------------------------4-----4-5-4-|
G|-------------------------------------|
D|-------------------------------------|
A|-------------------------------------|
E|-------------------------------------|

e|-4-2-4-2-4-5-4-2-1-2-------1-1-1-2-1------|
B|----------------------------4-4-----4-5-4-|
G|------------------------------------------|
D|------------------------------------------|
A|------------------------------------------|
E|------------------------------------------|


G              Bm             A#               A
Nadie nadie te espera como te espera mi corazón
G              Bm             A#               A
Niña dame tu mano que en mi verano te are canción

*Coro:
F#            Bm
Melodía para dos
F                C
con tu voz y mi voz
F#            Bm
Vamos uniendo canto que se oiga
C                     F
tanto y llegue hasta dios

F#            Bm
Al ser cáliz  de miel
F                C
con tu piel y mi piel
F#            Bm             F              C
Déjame ser tu amante tu fiel amante déjame ser
F#            Bm             C              F
Déjame ser tu amante tu fiel amante déjame ser


Intro:

G              Bm             A#               A
Nadie sueña contigo con el motivo de mi pasión
G              Bm             A#               A
Niña dios es testigo que te lo dice mi corazón


*Coro


Bajo:
e|-----------------------------|
B|-----------------------------|
G|---------------0-1-3-0-1-----|
D|--------------3--------------|
A|--0-1-3-0-1------------------|
E|-3---------------------------|

Requinto:
e|-3-3-5-3-2-0-2-3-2--2-0-2-3-5-3-2-|
B|-5-5-7-5-3-1-3-5-3--3-1-3-5-7-5-3-|
G|----------------------------------|
D|----------------------------------|
A|----------------------------------|
E|----------------------------------|

F#            Bm
Al ser cáliz  de miel
F                C
con tu piel y mi piel
F#            Bm             F              C
Déjame ser tu amante tu fiel amante déjame ser
F#            Bm             C
Déjame ser tu amante tu fiel amante (silencio y eleva voz)
        F       A#     F
déjame seeeeeeeeeeeeeeeer
Se acaba

A# =

E  1
B  3
G  3
D  3
A  1
E  1

Como debe de ser.
Le dedico esta cancion a la niña maas
linda del mundo.
Te AMO Gaby.
Suggest correction
Give kudos to tab author, rate the tab!
1 2 3 4 5
comments
print report bad tab
guest
You may want to rate the tab now too:
select rating
Wanna post a correction for this tab? Suggest correction