Oops, an error
Loading. Please wait.

Te Irá Mejor Sin Mí Tab

version 1
version 1

Whole song

61 views 3 this week
no commentswrite comment
1 2 3 4 5
3 more votes to show rating
add to favorites
×
Save as Personal and add changes to this tab that will be seen only by you. Learn more ›
×
You can save this tab as Personal to edit and correct it or add notes. All changes will be seen only by you. Learn more »
save as personal
new!
launch autoscroll
font size
0
reset
how to read this tab
guitar tuner
Autoscroll
slow
fast
+/-
esc
set tempo
stop
Gran canción de Joan Sebastian espero les guste y sirva
En este orden aparecen los bajos en la canción:
Escuhen bien la canción:
La Canción se toca con estos acordes
A, F#m, D y E

1er Bajeo este va en el Intro:

e------------------------------------
B------------------------------------
G------------------------------------
D------------------------------------
A-------------------------4----------
E-0-2-0-2-0-2-----0-2-4-5---5-4-2-4-0

2do Bajeo:

e------------
B------------
G------------
D------------
A-0-4--------
E-----5-4-2-0

3er Bajeo:

e------------------
B------------------
G------------------
D-0-2/4-0-2/4-0-2/4
A------------------
E------------------

4to Bajeo:

e------------------------------------
B------------------------------------
G------------------------------------
D------------------------------------
A-------------------------4----------
E-0-2-0-2-0-2-----0-2-4-5---5-4-2-4-0

5to Bajeo es igual al 3ro:

e------------------
B------------------
G------------------
D-0-2/4-0-2/4-0-2/4
A------------------
E------------------


6to y último bajeo:

e-----------------------------
B-----------------------------
G-----------------------------
D-----------------------------
A-0-2/4-2-4-0--0-2/4-2-4-0-2--
E----------------------------2

Continuación:

e------------------------------------
B------------------------------------
G------------------------------------
D------------------------------------
A-------------------------4----------
E-0-2-0-2-0-2-----0-2-4-5---5-4-2-4-0

No se si si son bajeos como se le llama pero si
suenan xD!!
Saludos!!! Echenle ganas y si sale xD!
Sugerencias y o comentarios a mi correo sale ps!!!
FeRn
Suggest correction
Give kudos to tab author, rate the tab!
1 2 3 4 5
comments
print report bad tab
guest
Wanna post a correction for this tab? Suggest correction