Oops, an error
Loading. Please wait.

Te Irá Mejor Sin Mí Tab

version 2
version 2

Whole song

112 views 3 this week
no commentswrite comment
1 2 3 4 5
3 more votes to show rating
add to favorites
launch autoscroll
font size
0
reset
how to read this tab
guitar tuner
Autoscroll
slow
fast
+/-
esc
set tempo
stop
Help us to improve Ultimate-Guitar.com Take our survey!
×
Hola. aqui les dejo esta tablatura de esta padre cancion
que me trae muchos recuerdos, califiquen
Dudas, comentarios o correciones, a mi correo

                     [INTRO]

       A               F#m            D                      E
e-------------|-----------------|-------------|-----------------------
B---0/2-0-2---|---0/2-0-2-------|-------------|-----------------------
G-2---------2-|-2---------2-1---|-------------|-----------------------
D-------------|---------------4-|-------------|-----------------------
A-------------|-----------------|-------------|-------0-2-0/2~0---0---
E-------------|-----------------|-0-2-0-2-0-2-|-0-2-4-----------4-----

                A
te ira mejor sin mi
                 F#m
No quiero que regreses
             D
La cruda es moral
           E
Y la pago con creces

e--------------
B--------------
G--------------
D--------------
A---4-2-0------
E-4-------4-2--

                 A
Te ira mejor sin mi
                  F#m
Haste un favor no vuelvas
               D
Es la oportunidad
               E
Que tu vida resuelbas
       D
Yo no soy el hombre
        E
Que tu quieres
       D
Mi problema es bello
       E
Y son mujeres
                 A
Te ira mejor sin mi

       A               F#m            D                      E
e-------------|-----------------|-------------|-----------------------
B---0/2-0-2---|---0/2-0-2-------|-------------|-----------------------
G-2---------2-|-2---------2-1---|-------------|-----------------------
D-------------|---------------4-|-------------|-----------------------
A-------------|-----------------|-------------|-------0-2-0/2~0---0---
E-------------|-----------------|-0-2-0-2-0-2-|-0-2-4-----------4-----
                  A
Te ira mejor sin mi
                    F#m
Encuentra un hombre bueno
              D
No es por exajerar
                   E
Yo siempre he sido ajeno
                 A
Te ira mejor sin mi
                F#m
Espero que lo entiendas
              D
Me encanta tu mirar

e--------------
B--------------
G--------------
D--------------
A--------------
E-0-2-0-2-0-2--

               E
Pero es mejor sin bendas
       D
Yo no soy el hombre
        E
Que tu quieres
       D
Mi problema es bello
      E
Y son mujeres
                    A
Te ira mejor sin miiiii


      A               F#m               D                 E
e-------------|-----------------|--------------|----------------------
B-------------|-----------------|--------------|----------------------
G-------------|-----------------|--------------|----------------------
D-------------|-----------------|--------------|----------------------
A-0-2/4-2-4-0-|-0-2/4-2-4-0-4-2-|--------------|-------0-2-0/2~0---0--
E-------------|-----------------|--0-2-0-2-0-2-|-0-2-4-----------4----
              hoooo            hoooo

               A
Te ira mejor sin mi
Suggest correction
Give kudos to tab author, rate the tab!
1 2 3 4 5
comments
print report bad tab
guest
You may want to rate the tab now too:
select rating
Wanna post a correction for this tab? Suggest correction