Oops, an error
Loading. Please wait.

Una Noche Más Tab

version 1
version 1

Whole song

85 views 3 this week
no commentswrite comment
1 2 3 4 5
3 more votes to show rating
add to favorites
launch autoscroll
font size
0
reset
how to read this tab
guitar tuner
×
Best way to learn
"Una Noche Más"
Autoscroll
slow
fast
+/-
esc
set tempo
stop
e-------------|--------------|
B-------------|--------------|
G-2-2-2-1-----|-4-4-4-1------|
D---------4-2-|---------2-4--|
A-------------|--------------|

e-------------|--------------|------------------|
B-------------|--------------|------------------|
G-2-2-2---1---|-4-4-4-1------|------------------|
D-------4---2-|---------2-4--|-2-2h4----2-2h4---|
A-------------|--------------|------------------|
E-------------|--------------|------------------|


Intro: E  F#m....(2 Veces)

F#m                               Bm
Por si acaso tu orgullo se acaba y tu altivez,
               E7               A  Bm
te deja ver la vida, un día como es
            F#m                Bm
por si acaso mañana, me dieras la razón
       C#7                         F#m     F#7
por eso es que te dejo, mi nueva dirección.

             Bm          E7        A
Por si necesitaras un día,   de un amigo
               Bm    C#7            F#m    F#7
yo quiero recordarte que lo tendrás conmigo
              Bm     E7         A
y por si acaso nunca volviera yo a encontrarte
               Bm   C#7            F#m
antes de despedirme yo quiero suplicarte.

Bm                        F#m                C#7
Regálame otra noche, hasta que llegue el día
  D7                   F#m
y después yo me marcho si
C#                F#m
me marcho vida mía.

(Coro)
F#m                               E
Y POR SI ACASO NUNCA TE VUELVO A ENCONTRAR
                             F#m
REGÁLAME UNA NOCHE UNA NOCHE MAS.
                                     E
Y POR SI ACASO NO NUNCA TE VUELVO A BESAR
                             F#m
REGÁLAME UNA NOCHE UNA NOCHE MAS,
              E
REGÁLAME UNA NOCHE MAS
F#m                      E
  UNA NOCHE MAS, UNA NOCHE MAS
         F#m
UNA NOCHE MAS.


e-------------|--------------|
B-------------|--------------|
G-2-2-2-1-----|-4-4-4-1------|
D---------4-2-|---------2-4--|
A-------------|--------------|

e---------------|--------------|------------------|
B---------------|--------------|------------------|
G-2-2-2-1---1---|-4-4-4-1------|------------------|
D---------4---2-|---------2-4--|-2-2h4----2-2h4---|
A---------------|--------------|------------------|
E---------------|--------------|------------------|


Intro:E F#m....(2 Veces)

F#m                              Bm
Por si acaso mañana, me llegas a extrañar
            E7               A      Bm
Y la melancolía, llegara a tu lugar
           F#m                      Bm
no lo tomes a ofensa miarlo, pudiera el caso dar
         C#7                    F#m
aquí esta mi teléfono, me llamas por cobrar.

(Coro)

F#m                               E
Y POR SI ACASO NUNCA TE VUELVO A ENCONTRAR
                             F#m
REGÁLAME UNA NOCHE UNA NOCHE MAS.
                                     E
Y POR SI ACASO NO NUNCA TE VUELVO A BESAR
                             F#m
REGÁLAME UNA NOCHE UNA NOCHE MAS,
              E
REGÁLAME UNA NOCHE MAS
F#m                      E
  UNA NOCHE MAS, UNA NOCHE MAS
         F#m
UNA NOCHE MAS.


F#m                               E
Y POR SI ACASO NUNCA TE VUELVO A ENCONTRAR
                             F#m
REGÁLAME UNA NOCHE UNA NOCHE MAS.
                                     E
Y POR SI ACASO NO NUNCA TE VUELVO A BESAR
                             F#m
REGÁLAME UNA NOCHE UNA NOCHE MAS,
              E
REGÁLAME UNA NOCHE MAS
F#m                      E
  UNA NOCHE MAS, UNA NOCHE MAS
         F#m
UNA NOCHE MAS.

FIN

Saludos a todo el CETis 99
Jackas
joaquin_zh@
Suggest correction
Give kudos to tab author, rate the tab!
1 2 3 4 5
comments
print report bad tab
guest
You may want to rate the tab now too:
select rating
Wanna post a correction for this tab? Suggest correction