Oops, an error
Loading. Please wait.

La Noria De Víctor Tab

15 views 1 this week
no commentswrite comment
1 2 3 4 5
3 more votes to show rating
add to favorites
×
Save as Personal and add changes to this tab that will be seen only by you. Learn more ›
×
You can save this tab as Personal to edit and correct it or add notes. All changes will be seen only by you. Learn more »
save as personal
new!
launch autoscroll
font size
0
reset
how to read this tab
guitar tuner
Autoscroll
slow
fast
+/-
esc
set tempo
stop
-INTRO-

---------2_3_2---|------------------|-----------7-5-3-3-5-7-7-|
-------3-------0-|--------3-0_1_0---|-------3-3---------------|
-----0-----------|------0---------0-|-----0-------------------|
---0-------------|---2--------------|---2---------------------|
-----------------|------------------|-3-----------------------|
-3---------------|-0----------------|-------------------------|


---------2_3_2---|------------------|---------|-3-3-5-3-0-------------|
-------3-------0-|--------3-0_1_0---|-------3-|-----------3-0---------|
-----0-----------|------0---------0-|-----0---|---------------2-0-2-0-|
---0-------------|---2--------------|---2-----|-----------------------|
-----------------|------------------|-3-------|-----------------------|
-3---------------|-0----------------|---------|---------------------3-|
                                           terminación solo de intro

Punteos de la letra.....
G?        C9?       C9??      D7?       C?            C#m?
---------|---------|---------|---------|-------------|---------|
-------3-|-------3-|-------3-|-------3-|---------1---|-----5---|
-----0---|-----0---|-----0---|-----5---|-----------0-|-------6-|
---0-----|---2-----|---2-----|---4-----|-------2-----|---6-----|
---------|---------|-3-------|-5-------|-0-2-3-------|-4-------|
-3-------|-0-------|---------|---------|-------------|---------|

D?       D#m?     D9?      Cm?      Dm?
---------|---------|---------|---------|---------|
-----3---|-----7---|-----7---|-----4---|-----6---|
---2---2-|-------8-|-------9-|-------5-|-------7-|
-0-------|---8-----|---9-----|---5-----|---7-----|
---------|-6-------|-7-------|-3-------|-5-------|
---------|---------|---------|---------|---------|


G?                  C9?
  Es algo inimaginable
                                   C9??
  el que esté dentro y nade en su mar
     D7?
  será feliz y pensará que eso es vivir

G?                               C9?
  nueve meses aguardando y no sabe
                            C9??
  lo que le deparará al salir,
    D7?
  será feliz y sabrá que eso es vivir


-PUENTE-
C?    C#m?
  el día llegó,
D?                   D#m?       D9?
  no pude haber imaginado que oír
        D#m?     Cm?        Dm?
  llorar a alguien me haría sonreir

-ESTRIBILLO-(2 veces)
G               D/F#
  tu primera victoria es nacer,
Em
  en esta noria que da
  D/F#             C     G/B
  vueltas en la historia
     Am           D
  de este mundo y de la gente

-INTRO-(pero con terminación....o terminar en D?)

-7-5-3-8-10-6_7-3-|
------------------|
------------------|
------------------|
------------------|
------------------|

G             D/F#       Em
  contarlo en una canción es difícil
            D/F#          C
  porque no hay tal palabra
G/B       Am             D
  que describa o exprese tanta ilusión,
G             D/F#        Em
  pasión por estar a su lado,
                  D/F#         C   G/B
  por tenerlo abrazarlo y mimarlo
   Am         D
  simplemente por vivir


-PUENTE-(rascado)
-ESTRIBILLO- (2 veces)
C G/B   Am           D
     de este mundo y de la gente
C G/B   Am           D
     de este mundo y de la gente

---------2_3_2---|------------------|-----------7-5-3-3-5-7-7-|
-------3-------0-|--------3-0_1_0---|-------3-3---------------|
-----0-----------|------0---------0-|-----0-------------------|
---0-------------|---2--------------|---2---------------------|
-----------------|------------------|-3-----------------------|
-3---------------|-0----------------|-------------------------|

-----------3-5-7_8_7-|------------0-2-3_5_3-|-----------7---8---10-|
-------3-3-----------|--------3-3-----------|-------3-3---3---3----|
-----0---------------|------0---------------|-----0----------------|
---0-----------------|---2------------------|---2------------------|
---------------------|----------------------|-3--------------------|
-3-------------------|-0--------------------|----------------------|

---------3-----3-|
-------3---3---3-|
-----0-------0-0-|
---0-----------0-|
---------------2-|
-3-------------3-|
Suggest correction
Give kudos to tab author, rate the tab!
1 2 3 4 5
comments
print report bad tab
guest
Wanna post a correction for this tab? Suggest correction