Oops, an error
Loading. Please wait.

Echele Agua A La Sopa Tab

50 views 3 this week
no commentswrite comment
1 2 3 4 5
3 more votes to show rating
add to favorites
launch autoscroll
font size
0
reset
how to read this tab
guitar tuner
×
Best way to learn
"Echele Agua A La Sopa"
Autoscroll
slow
fast
+/-
esc
set tempo
stop
**************************MIJA ÉCHELE AGUA A LA SOPA********************************


Name: Mario A. Úsuga
-----------------------
Mario A. Úsuga 2000
marious18@
------------------------
'In my tabs I trust'
------------------------
(30/12/2000)
------------------------
*Importante!* Esta es mi interpretación de la
canción, no ha sido sacada de ningún libro ni revista 
especializada. Cualquier parecido con la canción,
(y lo digo en serio) es pura coincidencia.


Artista:      Joaquín Bedoya
Titulo :      ÉCHELE AGUA A LA SOPA

This is a GREAT song, taken from the album 'El gitano Groserón 
y otros éxitos de parranda',

Tuning:- Regular;

    Riff 1:

  e -----4-4-4-4-4-------6-6-6-6-6-----6-6-6-6-6---9-8-6-----6---
  B -1-4------------4-8------------4-8-------------------9-8---9-
  G -------------------------------------------------------------
  D -------------------------------------------------------------
  A -------------------------------------------------------------
  E -------------------------------------------------------------


  e -----4-4-4-4-4-------6-6-6-6-6-----6-6-6-6-6---9-8-6-----6---
  B -1-4------------4-8------------4-8-------------------9-8---9-
  G -------------------------------------------------------------
  D -------------------------------------------------------------
  A -------------------------------------------------------------
  E -------------------------------------------------------------


  e -----1-1-1-1-1-----------------------------------------------
  B ---1-------------1-4-4-2-1-2---2-4-4-4-4-4-------2-1---1-----
  G -1-------------1-------------3-------------3-3-3-----3-------
  D -------------------------------------------------------------
  A -------------------------------------------------------------
  E -------------------------------------------------------------


  e -----1-1-1-1-1-----------------------------------------------
  B ---1-------------1-4-4-2-1-2---2-4-4-4-4-4---4-2-1-2-1-------
  G -1-------------1-------------3-------------------------3-1---
  D -------------------------------------------------------------
  A -------------------------------------------------------------
  E -------------------------------------------------------------
 

 G#
 Mija échele más agua a la sopa


   G#                                             D#   
   Porque vienen a almorzar Agustín con Juan Gabriel
                                             G#
   y Ana con sus 30 hijos y con su esposo Manuel
                                               D#   
   y también van a almorzar Piedad con don Rafael
                                                   G#
   y por ahí ya me contaron que son de muy buen comer


 
 G#
 Mija échele más agua a la sopa

    Riff1 

 G#
 Mija échele más agua a la sopa


    
                     G#                     D#     
  Van a venir a almorzar la familia de don Bruno
                                                      G# 
  son 50 hay que atenderlos pa` que no  hablen mal de uno
                                                D#     
  a almorzar también vendrán los 20 hijos de Quiceno
                                                       G# 
  me les sirve almuerzo a todos pa` que se vayan bien llenos


 G#
 Mija échele más agua a la sopa

    Riff1 

 G#
 Mija échele más agua a la sopa


                        G#                      D#  
  Luis Carlos y también Yeny van a venir a almorzar
                                               G# 
  échele 10 valdes de agua para que pueda alcanzar
                                           D#   
  y conté los invitados para empezar a servir
                                        G#
  y toditos mal contados sumaban como 3000


G#
 Mija échele más agua a la sopa

G#
 Mija échele más agua a la sopa


Riff1


G#
 Mija échele más agua a la sopa

G#
 Mija échele más agua a la sopa


-------------------------------------------------------------------------------------------

                           ACORDES:


                               O TAMBIÉN:

         G#      D#                             G#      D#       
  E -----4-------6------                 E ------8------3------
  B -----4-------8------                 B ------9------4------
  G -----5-------8------                 G ------8------3------ 
  D -----6-------8------                 D ------6------1------
  A -----6-------6------                 A ------x------x------
  E -----4-------x------                 E ------x------x------


       INCLUSO:


        G#        D#
  e -----8---------11------               
  B -----9---------8-------               
  G -----8---------8-------             
  D -----10--------8-------            
  A -----11--------10------              
  E -----8---------11------               


  yo recomiendo que estos acordes se toquen alternados para darle  mayor dinamismo a la canción.
  espero que les haya gustado y la disfruten (sobretodo en los diciembres)

-----------------------------------------------------------------------------------------------  


 Handmade in Medellín 
 By Mario A. Úsuga C.
  marious18@
 All rights reserved.
 Copyright 2000 


  Si algo no les quedó claro,si les gustó, si no,si tienen alguna inquietud, pregunta,duda,

  corrección, aclaración,   comentario, o lo que se les ocurra escriban:
                                                                        marious18@


     ¡¡¡¡¡¡¡¡¡¡¡¡¡¡¡¡¡¡¡¡BUENO PUES QUE ES PA` QUE SE LO PARRANDEEN!!!!!!!!

************************************************************************************************
                                  FELIZ AÑO 2001
Suggest correction
Give kudos to tab author, rate the tab!
1 2 3 4 5
comments
print report bad tab
guest
You may want to rate the tab now too:
select rating
Wanna post a correction for this tab? Suggest correction