Oops, an error
Loading. Please wait.

Las Dos Camisas Tab

496 views 1 this week
no commentswrite comment
1 2 3 4 5
3 more votes to show rating
add to favorites
×
Save as Personal and add changes to this tab that will be seen only by you. Learn more ›
×
You can save this tab as Personal to edit and correct it or add notes. All changes will be seen only by you. Learn more »
save as personal
new!
launch autoscroll
font size
0
reset
how to read this tab
guitar tuner
Autoscroll
slow
fast
+/-
esc
set tempo
stop
 C#                       G#m
e|-4-4-4-4-----|-------4-------|-4-4-4-4-----|
B|---------6---|-----6---6-4---|---------4---|
G|-----------6-|---6---------4-|-----------4-|
D|-------------|-6-------------|-------------|
A|-------------|---------------|-------------|
E|-------------|---------------|-------------|
            F#
e|-------4-------|---2--2-2-2--2-2-2--2-2-2--|
B|-----4---4-2---|-2-------------------------|
G|---4---------3-|---------------------------|
D|-6-------------|---------------------------|
A|---------------|---------------------------|
E|---------------|---------------------------|
           G#m       F#
e|-2-2-2--2-4-4-----|---2--2-2-2-2--2--2--2--2--|
B|--------------4---|-2-------------------------|
G|----------------4-|---------------------------|
D|------------------|---------------------------|
A|------------------|---------------------------|
E|------------------|---------------------------|
           G#m       F#
e|--2-2-2--2-4-4-----|---2--2-2-2--2-2-2--2-2-2--|
B|---------------4---|-2-------------------------|
G|-----------------4-|---------------------------|
D|-------------------|---------------------------|
A|-------------------|---------------------------|
E|-------------------|---------------------------|
         G#m        F#                              G#m
e|-2-2-2--2-4-4-----|---2--2-2-2-2--2--2--2--2--|--2-2-2--2-4-4-----|
G|--------------4---|-2-------------------------|---------------4---|
B|----------------4-|---------------------------|-----------------4-|
D|------------------|---------------------------|-------------------|
A|------------------|---------------------------|-------------------|
E|------------------|---------------------------|-------------------|

F#                                 C#
Tengo dos camisas una blanca una negra y me gustan mucho me
                                                             F#
gustan mucho me las dio mi negra ayer le hice una visita a la novia mía
            G#            F#
y toda furiosa así me decía donde están las camisas
                                             Bb
por que es que no te las pones o quieres que yo te de también los pantalones
                                                G#
o fue que no te gustaron, no quieres estar a la moda
                                     F#
o seguro te prohibió ponértelas tu señora luego contesto
                         G#               C#5  G#m
mamá me lavo la negra mamá me lavo la blanca me lavo las dos camisas

lavo la blanca y la negra mamá me lavo la negra mamá me lavo la blanca
            F#m7 G#m    C#                    F#
me lavo las dos camisas lavo la blanca y la negra

 C#                       G#m
e|-4-4-4-4-----|-------4-------|-4-4-4-4-----|
B|---------6---|-----6---6-4---|---------4---|
G|-----------6-|---6---------4-|-----------4-|
D|-------------|-6-------------|-------------|
A|-------------|---------------|-------------|
E|-------------|---------------|-------------|
            F#
e|-------4-------|---2--2-2-2--2-2-2--2-2-2--|
B|-----4---4-2---|-2-------------------------|
G|---4---------3-|---------------------------|
D|-6-------------|---------------------------|
A|---------------|---------------------------|
E|---------------|---------------------------|
           G#m       F#
e|-2-2-2--2-4-4-----|---2--2-2-2-2--2--2--2--2--|
B|--------------4---|-2-------------------------|
G|----------------4-|---------------------------|
D|------------------|---------------------------|
A|------------------|---------------------------|
E|------------------|---------------------------|
           G#m       F#
e|--2-2-2--2-4-4-----|---2--2-2-2--2-2-2--2-2-2--|
B|---------------4---|-2-------------------------|
G|-----------------4-|---------------------------|
D|-------------------|---------------------------|
A|-------------------|---------------------------|
E|-------------------|---------------------------|
         G#m        F#                              G#m
e|-2-2-2--2-4-4-----|---2--2-2-2-2--2--2--2--2--|--2-2-2--2-4-4-----|
G|--------------4---|-2-------------------------|---------------4---|
B|----------------4-|---------------------------|-----------------4-|
D|------------------|---------------------------|-------------------|
A|------------------|---------------------------|-------------------|
E|------------------|---------------------------|-------------------|

F#                                 C#
Tengo dos camisas una blanca una negra y me gustan mucho me
                                                             F#
gustan mucho me las dio mi negra ayer le hice una visita a la novia mía
            G#            F#
y toda furiosa así me decía donde están las camisas
                                             Bb
por que es que no te las pones o quieres que yo te de también los pantalones
                                                G#
o fue que no te gustaron, no quieres estar a la moda
                                     F#
o seguro te prohibió ponértelas tu señora luego contesto
                         G#               C#5  G#m
mamá me lavo la negra mamá me lavo la blanca me lavo las dos camisas

lavo la blanca y la negra mamá me lavo la negra mamá me lavo la blanca
            F#m7 G#m    C#                    F#
me lavo las dos camisas lavo la blanca y la negra

 C#                       G#m
e|-4-4-4-4-----|-------4-------|-4-4-4-4-----|
B|---------6---|-----6---6-4---|---------4---|
G|-----------6-|---6---------4-|-----------4-|
D|-------------|-6-------------|-------------|
A|-------------|---------------|-------------|
E|-------------|---------------|-------------|
            F#
e|-------4-------|---2--2-2-2--2-2-2--2-2-2--|
B|-----4---4-2---|-2-------------------------|
G|---4---------3-|---------------------------|
D|-6-------------|---------------------------|
A|---------------|---------------------------|
E|---------------|---------------------------|
           G#m       F#
e|-2-2-2--2-4-4-----|---2--2-2-2-2--2--2--2--2--|
B|--------------4---|-2-------------------------|
G|----------------4-|---------------------------|
D|------------------|---------------------------|
A|------------------|---------------------------|
E|------------------|---------------------------|
           G#m       F#
e|--2-2-2--2-4-4-----|---2--2-2-2--2-2-2--2-2-2--|
B|---------------4---|-2-------------------------|
G|-----------------4-|---------------------------|
D|-------------------|---------------------------|
A|-------------------|---------------------------|
E|-------------------|---------------------------|
         G#m        F#                              G#m
e|-2-2-2--2-4-4-----|---2--2-2-2-2--2--2--2--2--|--2-2-2--2-4-4-----|
G|--------------4---|-2-------------------------|---------------4---|
B|----------------4-|---------------------------|-----------------4-|
D|------------------|---------------------------|-------------------|
A|------------------|---------------------------|-------------------|
E|------------------|---------------------------|-------------------|

F#                         G#               C#5  G#m
mamá me lavo la negra mamá me lavo la blanca me lavo las dos camisas

lavo la blanca y la negra mamá me lavo la negra mamá me lavo la blanca
            F#m7 G#m    C#                    F#
me lavo las dos camisas lavo la blanca y la negra
Suggest correction
Give kudos to tab author, rate the tab!
1 2 3 4 5
comments
print report bad tab
guest
Wanna post a correction for this tab? Suggest correction