Oops, an error
Loading. Please wait.

Algunas Veces Chords

version 1
version 1

Whole song

4 views 1 this week
no commentswrite comment
1 2 3 4 5
3 more votes to show rating
add to favorites
launch autoscroll
font size
0
reset
transpose
0
reset
simplify chords
display chords
guitar tuner
Autoscroll
slow
fast
+/-
esc
set tempo
stop
Help us to improve Ultimate-Guitar.com Take our survey!
×
E|------------|--------------------
B|--5---------|--0-----------------
G|----3-------|----2---------------
D|------5-----|------2-------------
A|--------0---|--------0---3---0-1-
E|------------|----------0---0-----

C*
silvia algunas noches me calienta con sus pies

solo algunas veces y hoy fue una que pase
A5 la5/sol la5/fa A5 la5/sol C*
contigo,contigo

pero muchas noches me conformo con creer
que duermes conmigo, que me calentas los pies
tan frios son, tan frios son

A5
me movere,
                                     Dm
liberare los pies de nuestra manta y tu
                                    G*                A4
quizas te escapes y aparezcas en algun rincon por la mañana (2)

rara vez escapas a mis golpes de pasion
me amotino en besos que rebosan el colchon
y duermo, y duermo

me movere,
liberare los pies de nuestra manta y tu
quizas te escapes y aparezcas en algun rincon por la mañana

acordes

    C*         A5          la5/sol


 E|------------|------------|--3---------|
 B|--5---------|--0---------|--0---------|
 G|--3---------|--2---------|--2---------|
 D|--5---------|--2---------|--2---------|
 A|--0---------|--0---------|--0---------|
 E|------------|------------|------------|


  la5/fa        Dm          G*         A4

 E|--1---------|------------|--3---------|------------
 B|--0---------|------------|------------|--0---------
 G|--2---------|--0---------|--0---------|--2---------
 D|--2---------|--2---------|--0---------|--2---------
 A|--0---------|--3---------|--0---------|--3---------
 E|------------|--1---------|------------|------------


aunque la cancion se llame silvia me encantaria que fuera
escrito tu nombre, porque es imposible quitarme de la cabeza
tu imagen riendo cuando se te cierran los ojos y se te forma
una arruguita entre ellos. Nunca dejes de tocar, te hace aun
mas maravillosa
Suggest correction
Give kudos to tab author, rate the tab!
1 2 3 4 5
comments
print report bad tab
guest
You may want to rate the tab now too:
select rating
Wanna post a correction for this tab? Suggest correction