Oops, an error
Loading. Please wait.

19 Dias Y 500 Noches Tab

version 4
version 4

Whole song

Interactive

168 views 1 this week
no commentswrite comment
1 2 3 4 5
3 more votes to show rating
add to favorites
launch autoscroll
font size
0
reset
how to read this tab
guitar tuner
×
Best way to learn
"19 Dias Y 500 Noches"
Autoscroll
slow
fast
+/-
esc
set tempo
stop
Introducción:


---12-12-12-10-8-8-8-10-12-12-10-8-8-7---
-----------------------------------------
-----------------------------------------
-----------------------------------------
-----------------------------------------
-----------------------------------------

---4-5-6-7-2-4-5-4-2-0---
--4-6-7-8--2-4-6-4-2-1---
-------------------------
-------------------------
-------------------------
-------------------------

-------------------------
-------------------------
-------------------------
-------------------------
---0-1-2---2-4-5-6-------
-4-----------------------

     MI                                SIbdim
A)Lo nuestro duró lo que duran dos peces de hielo en un güisqui on the

FA#m
rocks,
             SI7          FA#m               SI7                 MI
en vez de fingir, o, estrellarme una copa de celos, le dio por reír.

             MI          MI7
De pronto me vi, como un perro de nadie, ladrando, a las puertas del
 LA
cielo.
     LAm                MI          DO#m        FA#m  SI
Me dejó un neceser con agravios, la miel en los labios y escarcha en

   MI  SI7
el pelo.

-------------------------
-------------------------
-------------------------
-------------------------
---0-1-2---2-4-5-6-------
-4-----------------------

A)Tenían razón mis amantes en eso de que, antes, el malo era yo,
con una excepción: esta vez, yo quería quererla querer y ella no.
Así que se fue, me dejó el corazón en los huesos y yo de rodillas.
Desde el taxi, y, haciendo un exceso, me tiró dos besos... uno por mejilla.

LA
B)Y regresé a la maldición del cajón sin su ropa,
a la perdición de los bares de copas,
a las cenicientas de saldo y esquina,
y, por esas ventas del fino Laína,
pagando las cuentas de gente sin alma
                               MI               SI7
que pierde la calma con la cocaína, volviéndome loco,
     FA#m                 SI7                                    MI  [MI7]
derrochando la bolsa y la vida la fui, poco a poco, dando por perdida.

B)Y eso que yo, para no agobiar con flores a María,
para no asediarla con mi antología
de sábanas frías y alcobas vacías,
para no comprarla con bisutería,
ni ser el fantoche que va, en romería,
con la cofradía del Santo Reproche, tanto la quería,
que tardé, en aprender a olvidarla, diecinueve días y quinientas noches.

-------------------------
-------------------------
-------------------------
-------------------------
---0-1-2---2-4-5-6-------
-4-----------------------
A)Dijo hola y adiós, y, el portazo, sonó como un signo de interrogación,
sospecho que, así, se vengaba, a través del olvido, Cupido de mí.
No, no pido perdón, ¿para qué? si me va a perdonar porque ya no le importa
siempre tuvo la frente muy alta, la lengua muy larga y la falda muy corta.

B)Me abandonó, como se abandonan los zapatos viejos,
destrozó el cristal de mis gafas de lejos,
sacó del espejo su vivo retrato,
y, fui, tan torero, por los callejones
del juego y el vino, que, ayer, el portero,
me echó del casino de Torrelodones. Qué pena tan grande,
negaría el Santo Sacramento, en el mismo momento que ella me lo mande.

B)Y eso que yo...
B)Y regresé... (Desvaneciéndose)

01 de Octubre del 2010
A mi hermosa mujer Luz Divina
Suggest correction
Give kudos to tab author, rate the tab!
1 2 3 4 5
comments
print report bad tab
guest
You may want to rate the tab now too:
select rating
Wanna post a correction for this tab? Suggest correction