Oops, an error
Loading. Please wait.

Ahora Que Tab

version 2
version 2

Whole song

176 views 1 this week
no commentswrite comment
1 2 3 4 5
3 more votes to show rating
add to favorites
×
Save as Personal and add changes to this tab that will be seen only by you. Learn more ›
×
You can save this tab as Personal to edit and correct it or add notes. All changes will be seen only by you. Learn more »
save as personal
new!
launch autoscroll
font size
0
reset
how to read this tab
guitar tuner
Autoscroll
slow
fast
+/-
esc
set tempo
stop
Intro: Em--Am-B

e-------------------------------------------------------------.
b-12------12-10----10-10--------------------------------------.
g----9-12-------12-------12-9.--------12----------------------.
d-------------------------------10-12----10^12^10-------------.
a-------------------------------------------------12-11-10-->7.
e-------------------------------------------------------------.

e-17(h)---15-17---------------12^15^12------------------------.
b------17-------17--15-17-------------12^15^12----------------.
g-------------------------16------------------14-12-----------.
d--------------------------------------------------14-12------.
a-------------------------------------------------------14-13-12.
e--------------------------------------------------------------.


Solo quería agregarle la intro al tema, ya que pienso que la
transcripción de Ariel
está muy bien, espero que lo disfruten.
un abrazo? los
punteos de fondo búsquenlos en la pentatónica de Re, Mi y Si..
un abrazo para todos los sabineros.. gracias a Ariel que le puso
las notas a este temazo?
Suggest correction
Give kudos to tab author, rate the tab!
1 2 3 4 5
comments
print report bad tab
guest
Wanna post a correction for this tab? Suggest correction