Oops, an error
Loading. Please wait.

Amor Se Llama El Juego Tab

115 views 3 this week
no commentswrite comment
1 2 3 4 5
3 more votes to show rating
add to favorites
launch autoscroll
font size
0
reset
how to read this tab
guitar tuner
×
Best way to learn
"Amor Se Llama El Juego"
Autoscroll
slow
fast
+/-
esc
set tempo
stop
LE DAN UNA OREJEADA PORQUE QUE DESFAZA LA UBICACIÓN DE LOS ACORDES
CUANDO SE SUBE A ESTE SITIO DUDAS O COMENTARIOS:

udelaluz@


INTRO: |E   |G#m |A   |C#m |A  |B   ||
        .... .... .... ..   ..  ....

E                             G#m                   C#m
Hace demasiados meses que mis payasadas no provocan tus
           A              F#m
Ganas de reir... No es que ya no me intereses
         G#m                        A
Pero el tiempo de los besos y el sudor
F#m           B
Es la hora de dormir

       E
Duele verte removiendo
      G                        C#m    B             A
La cajita de cenizas que el placer... tras de sí dejó
F#m
Mal y tarde estoy cumpliendo
     G#m                       A          F#m           B
La palabra que te dí cuando juré... Escribirte una canción


          E                         C#m
Un Diós triste y envidioso nos castigó
        A
Por trepar juntos al árbol
       F#m                         A
Y atracarnos con la flor de la pasión
       F#m             B
por probar... aquel sabor


ESTRIBLLO
G                    D                  C
  El agua apaga el fuego y al ardor los años
G                   C                         Em
  Amor se llama el juego en el que un par de ciegos
                    D   Em           D
Juegan a hacerse daño... y cada vez peor
                C     Am               Em
Y cada vez más rotos... y cada vez más tú
                G                     D
Y cada vez más yo sin rastro de nosotros...


       E
Ni inocentes ni culpables
     G#m                       C#m.. B..
Corazones que desbroza el temporal
             A            F#m
Carnes de cañón... No soy yo, ni tu ni nadie
        G#m                      A      F#m         B
Son los dedos miserables que le dan... cuerda a mi reloj

Solo:
   .= Tiempos
  / = Slide.
  = Ligado rápido.
  ^ = Ligado.
    E....                                    B7....
e|-------------------------|--------12-16-12-14---|--7/9---9--9--|
B|--5--7-(7)/9----10/12----|--12-14---------------|--------------|
G|-------------------------|----------------------|--------------|
D|--2--4-(4)/9-----7/9-----|----------------------|--9/11-11-11--|
A|-------------------------|----------------------|--------------|
B|-------------------------|----------------------|--------------|

      F#m7              A....
e|--5/7-7-7--7/4/7-|-------------------------|
B|-----------------|-5-7/9-7-5-5-5---5^7-5-5-|
G|-----------------|---------------7---------|
D|--7/9-9-9--9/6/9-|-------------------------|
A|-----------------|-------------------------|
B|-----------------|-------------------------|

             E....                               F#m7..
e|-------------7------(7)/9-7-7-|-12------------------
B|-5-7-9-7-5---5-5------------|----10-9-------------
G|------------------------------|---------11-9--------
D|------------------------------|--------------9/(11)-
A|------------------------------|---------------------
E|------------------------------|---------------------

           A..              B....
e|-------------------|------7---------12--16-14-12-14--||
B|-------------------|--7/9----12/-14------------------||
G|-------------------|---------------------------------||
D|--6-9-6--9/11-9-9--|---------------------------------||
A|-------------------|---------------------------------||
B|-------------------|---------------------------------||


          E                          C#m
Y no hay lágrimas que valgan para volver
     F#m
A meternos en el coche
         A                        F#m
Donde aquella noche en pleno carnaval
        A           B
Te empecé...A desnudar


ESTRIBILLO X2


Dudas, comentarios, facebook:

udelaluz@
Suggest correction
Give kudos to tab author, rate the tab!
1 2 3 4 5
comments
print report bad tab
guest
You may want to rate the tab now too:
select rating
Wanna post a correction for this tab? Suggest correction