Oops, an error
Loading. Please wait.

Calle Melancolía Tab

version 3
version 3

Whole song

100 views 1 this week
no commentswrite comment
1 2 3 4 5
3 more votes to show rating
add to favorites
launch autoscroll
font size
0
reset
how to read this tab
guitar tuner
Autoscroll
slow
fast
+/-
esc
set tempo
stop
Help us to improve Ultimate-Guitar.com Take our survey!
×
                              CALLE MELANCOLÍA
                                (nos sobran los motivos)


ESTE ARPEGIO SE REPITE 6 VECES ANTES DEL PUNTEO:


    D          C9
                       >
E------->--------------0----------|
B-------3--(3)-------3---3---3----|
G-----2--(2)-(2)---0-------0------|
D---0-----------------------------|
A---------------3-----------------|
E---------------------------------|


E-------------------------------------------------------------------------
B-------------------------------------------------------------------------
G--------7-5-4\2-0h2-2/\/\/\--7-5-4\2-0----------------bend---------------
D--4h5h7--------------------------------4h5h7-4-0-------/)----------------
A--------------------------------------------------0h3--7---5-5/7---5-5---
E----------------------------------------------------------------7--------


                                     A
E------------------------------------5---|
B-------------------------------(7)--5---|
G----------bend---------------(7)----6---|
D---4h5h7---/)-----------------------7---|
A-----------7----5--5/7---5-5--------7---|
E-----------------------7------------5---|


TODAS LAS ESTROFAS SON IGUALES ALTERANDO EL ARPEGIO DE
CADA ACORDE, EN CADA CASO, DE MANERA SENCILLA:


A                     Bm    G      A          D
  ?Como quien viaja a lomos de una yegua sombría
A                Bm  G     E           A
 por la ciudad camino, no preguntéis a dónde.
C                   G    F         A         D
 Busco, acaso, un encuentro que me ilumine el día
A                    Bm         G       A        D
 y no hallo más que puertas que niegan lo que esconden.?


(??pero y además de cantar me pagáis?)

                                          SOLO


E--(7)/8--(5)/7--8-7---------------------------------------------------------------
B--------------------10-8-8h10-----8p7---7-8/10--8p7-------------------------------
G------------------------------7-7-----9-------------9-7-5/7-7----------7-7/9-7----
D----------------------------------------------------------------7-9-10------------
A----------------------------------------------------------------------------------
E----------------------------------------------------------------------------------

                                                 A
E--------------------------------------->------------------5----|
B--------------------------------------------------(7)-----5----|
G-------->----------------------------7-7/9-7--4h7---(7)---6----|
D---10-9-9h10-9-9--7r5p7--10-9-7-9-10----------------------7----|
A----------------------------------------------------------7----|
E----------------------------------------------------------5----|


    A   Bm   G    D    E   C    F

E----0----2----3----2----0----0----1---||
B----2----3----3----3----0----1----1---||
G----2----4----0----2----1----0----2---||
D----2----4----0----0----2----2----3---||
A----0----2----2----0----2----3----3---||
E----0----2----3----x----0----0----1---||


h: hammer on

p: pull off

B: bend

/\/\/\: vibratto

>: nota acentuada

.: nota picada (stacatto)

/: slide ascendente

\: slide descendente

/): bend y regreso

r: release (liberar)


GATO.
Suggest correction
Give kudos to tab author, rate the tab!
1 2 3 4 5
comments
print report bad tab
guest
You may want to rate the tab now too:
select rating
Wanna post a correction for this tab? Suggest correction