Oops, an error
Loading. Please wait.

No Permita La Virgen Tab

81 views 3 this week
no commentswrite comment
1 2 3 4 5
3 more votes to show rating
add to favorites
launch autoscroll
font size
0
reset
how to read this tab
guitar tuner
×
Best way to learn
"No Permita La Virgen"
Autoscroll
slow
fast
+/-
esc
set tempo
stop
    ACORDES:
     
        G  C  Bm  D   F   Em  Am
  E||---3--O--2---2---1---O---O--
  B||---O--1--3---3---1---O---1--
  G||---O--O--4---2---2---O---2--
  D||---O--2--4---O---3---2---2--
  A||---2--3--2---X---3---2---O--
  E||---3--X--X---X---1---O---X--


    INTRO:  (guitarra portuguesa)
    
               G   C    G                C          G          F                Em                      D C Bm Am
  E|--------------1O--------------------------------------------------------------------------12121212-1O-------|
  B|----12-1O--------------12-1O---12-1O---1O/12-1O------------1O-13/1O---13/12-1O------------------------------|
  G|----------12-----1212--------12------12---------12---1O-12---------------------12-1O-12---12----------------|
  D|------------------------------------------------------------------------------------------------------------|
  A|------------------------------------------------------------------------------------------------------------|
  E|------------------------------------------------------------------------------------------------------------|


  G                        C      G                     C            G    
  No permita la virgen que tengas poder sobre lágrimas, egos, haciendas,
  (A:O,2,3) C                                   Bm                     D D(sus4)     
  cuando labios sin ánimas quieran quererte al condado liquida la tienda.
  G                           C       G                C                   G 
  No te pases un pelo de listo, no inviertas en cristos, no te hagas el tonto,
  (A:O,2,3) C                                Bm                      D
  las hogueras a primera vista cuché de revista, se apagan bien pronto.
  Em                    C                    G                    D
  El caballo de Atila no sabe trotar sin hollar azulejos silvestres, 
  Am                      Bm                 D                    G     
  los vencejos con ánimo de molestar coleccionan estatuas ecuestres.
  
  (A:O,2,3) C         G C                         G
  Cosas de quita y pon, mariposas de sangre marrón,
  F                    C                   D C Bm Am
  carnavales en los arrabales de mi corazón.
  

      (solo de armónica)
  
  Notas de la armónica:
                  
  ejemplo: 4--> nota soplada    (los números indican el cuadradito
          (4)-> nota aspirada    dónde se debe tocar)

             G      C      G                  C     G
   ---> (1O)(1O),12,11 11,(1O),,(9),(1O)(1O),,9,1O,(9)
            
(A:O,2,3) C         Bm                       D
      (16),15,,14 14,(14),,14 14,(14),,14 14,(14).....


  G                        C        G                 C             G   |
  La belleza es un rabo de nube que sube de dos en dos las escaleras,   |
  (A:O,2,3)C                                 Bm                 D       |
  un carné exclusivo de socios del pingüe negocio de la primavera,      |
  Em                       C                  G                     D   | A
  un barril de cerveza que mata de sed, un melón con pezón de sandía,   |
  Am                        Bm                  D               G       |
  un espía enemigo, un contigo al revés, un ombligo de bisutería.       |
  
  (A:O,2,3)C          G     C                    G                      
  Cosas de quita y pon, mariposas de sangre marrón,                     
  F                               C                D C Bm Am           
  no me quieras querer, no me quieras matar, corazón.                   

  
  
                G                C           G                  C      G (A:O,2,3) C                                  Bm              D 
   E||---------------------------------------------------------------------------------------------------------------------------------------|
   B||------1O-12-12-1212/1O----13-12-12/1O-12-----1O/12-1O/---1O--------------------------------1O------------------------------------------|
   G||----12-----------------12-----------------12----------12---12-9--------9/11-12-12-1212/11-9---12-12-11/12--11/9----------9-------------|
   D||----------------------------------------------------------------12---------------------------------------------12--12-9---12-1212------|
   A||---------------------------------------------------------------------------------------------------------------------------------------|
   E||---------------------------------------------------------------------------------------------------------------------------------------|


  Se repiten los acordes de la A, mientras se tararea lo de abajo.
  

    (nara..ná..naraná..........) 


  (A:O,2,3)C          G     C                    G
  Cosas de quita y pon, mariposas de sangre marrón,
  F                      C                D  C Bm Am 
  cardenales en los funerales de mi corazón.

  G.....
  No permita la virgen que tengas poder.
Suggest correction
Give kudos to tab author, rate the tab!
1 2 3 4 5
comments
print report bad tab
guest
You may want to rate the tab now too:
select rating
Wanna post a correction for this tab? Suggest correction