Oops, an error
Loading. Please wait.

Nos Sobran Los Motivos Tab

version 2
version 2

Whole song

166 views 1 this week
no commentswrite comment
1 2 3 4 5
3 more votes to show rating
add to favorites
launch autoscroll
font size
0
reset
how to read this tab
guitar tuner
×
Best way to learn
"Nos Sobran Los Motivos"
Autoscroll
slow
fast
+/-
esc
set tempo
stop
 ---> Inter de 'Nos sobran los Motivos'<---

            Am            F       E                         Am
--5---------------------------------------------------3-4-4-5---------
----5-5-----------------------------------------5-6-7-----------------
--------7-5-7-5-5-------------------------4-5-7-----------------------
------------------7-5-------------2-3-5-6-----------------------------
----------------------5-3-5-0-3-5-------------------------------------
----------------------------------------------------------------------
           F          E                         Am
-0-8-0-7-0-5----------------------------------------------------------
------------------------6---5h6h5---5-6---5h6h6-5---5h6h5---5---------
------------7-5-7-7-7-9---7-------7-----7---------7-------7-----------
----------------------------------------------------------------------
----------------------------------------------------------------------
----------------------------------------------------------------------
     F             E                                Am          F
-5-7-8-7-5------------------------------------------------------------
-----------8-7-6------------------------------------------------------
------------------7h9h7-7h9h7-7h9h7-7h9h7-7h9h7-5h7h5-----------------
------------------------------------------------------7-5-7-----------
------------------------------------------------------------5-3-5-----
----------------------------------------------------------------------
            E                     Am
----------------------------------------------------------------------
----------------------------------------------------------------------
----------------------------------------------------------------------
-5-5-4-3-0h2h0--------------------------------------------------------
---------------3-3-2-3-5-3-3-2-0-0------------------------------------
----------------------------------------------------------------------

Este es el solo de guitarra que hace Antonio Garcia de Diego en la version de
'Nos sobran los Motivos' que esta en el CD homonimo. Hay que escuchar muy bien el
tema para que les salga bien el punteo, porque este guitarrista tiene un fraseo 
muy bueno, que hace dificil, a veces seguirle la marcha. 
Estoy 99% seguro de que este punteo esta correcto, pero si alguien quiere hacerle una 
critica, mi e mail es juan_cafferata@ Me gustaria recibir tambien los comentarios 
sobre este solo que puedan hacerme otros amigos guitarristas.
Suggest correction
Give kudos to tab author, rate the tab!
1 2 3 4 5
comments
print report bad tab
guest
You may want to rate the tab now too:
select rating
Wanna post a correction for this tab? Suggest correction