Oops, an error
Loading. Please wait.

Nos Sobran Los Motivos Tab

version 3
version 3

Whole song

101 views 1 this week
no commentswrite comment
1 2 3 4 5
3 more votes to show rating
add to favorites
launch autoscroll
font size
0
reset
how to read this tab
guitar tuner
×
Best way to learn
"Nos Sobran Los Motivos"
Autoscroll
slow
fast
+/-
esc
set tempo
stop
Bueno, aca hay otra version de este solo...
no entendi mucho el programa para crear tabs pero
sirve para guiarse un poco :)


|-5-------------------------------------------------------3-4-5-5-7S8-0--|
|---3h4-3-----3-------------------------------------4-5-7----------------|
|---------5-2---2-5-2-------------------------4-5-7----------------------|
|---------------------5---------------2-3-5-6----------------------------|
|-----------------------5-3S5-0-3-3-5------------------------------------|
|------------------------------------------------------------------------|


|-7-0-5-------------------------------------------------------------5-7S8--|
|-----------------------------------------------------------------5--------|
|-------5-7-5-7S9-9S10-7-9-10-7-9-9S10-7-9-10-7-9-9S10-7-9-10-7-9----------|
|--------------------------------------------------------------------------|
|--------------------------------------------------------------------------|
|--------------------------------------------------------------------------|


|-7-5-------------------------------------------------------------------|
|-----9-8-7-5-3S5-5-3S5-5-3S5-5-3S5-4-3---------------------------------|
|---------------------------------------5-2-0-2-------------------------|
|-------------------------------------------------------5-5-4-3-2h3-0-2-|
|-----------------------------------------------3h5-3-5-----------------|
|-----------------------------------------------------------------------|
Suggest correction
Give kudos to tab author, rate the tab!
1 2 3 4 5
comments
print report bad tab
guest
You may want to rate the tab now too:
select rating
Wanna post a correction for this tab? Suggest correction