Oops, an error
Loading. Please wait.

Paisanaje Tab

49 views 3 this week
no commentswrite comment
1 2 3 4 5
3 more votes to show rating
add to favorites
launch autoscroll
font size
0
reset
how to read this tab
guitar tuner
×
Best way to learn
"Paisanaje"
Autoscroll
slow
fast
+/-
esc
set tempo
stop
Paisanaje
Intro


-------------------332-3/5-3-23v-------------------------------------------
-333-3-1-1-0---------------------333-3-1-1-0-----------------------333-3-1-
-------------2/4-4---------------------------2/4-4--3333-3-0-0-------------
---------------------------------------------------------------4-----------
---------------------------------------------------------------------------
---------------------------------------------------------------------------

-----------2-3-2-3/5-3-5/7-7-7-7--777-8-7-8-10-11-10-8-7-----10-7-3-0------
1-0-------------------------------------------------------------------3-1--
-------2/4-4---------------------------------------------------------------
-------------------------------------------------------------0-------------
---------------------------------------------------------------------------
---------------------------------------------------------------------------


---------------------------------------------------------------------------
-0h1-0---------------------------------------------------------------------
-------2-0-----------------------------------------------------------------
------------4-2-0----------------------------------------------------------
---------------------------------------------------------------------------
---------------------------------------------------------------------------
Suggest correction
Give kudos to tab author, rate the tab!
1 2 3 4 5
comments
print report bad tab
guest
You may want to rate the tab now too:
select rating
Wanna post a correction for this tab? Suggest correction