Oops, an error
Loading. Please wait.

Pongamos Que Hablo De Madrid Tab

425 views 3 this week
no commentswrite comment
1 2 3 4 5
2 more votes to show rating
add to favorites
×
Save as Personal and add changes to this tab that will be seen only by you. Learn more ›
×
You can save this tab as Personal to edit and correct it or add notes. All changes will be seen only by you. Learn more »
save as personal
new!
launch autoscroll
font size
0
reset
how to read this tab
guitar tuner
Autoscroll
slow
fast
+/-
esc
set tempo
stop
Esta es la mejor versión si sabéis entenderla.

INTRO:

Hay notas que hay que hacer ligadas lo que pasa es que no se como ponerlo
               DO 

E--------0-1--0---------------------0--1-----0----------------
B-1-1-3----------1---1--------1-1-3------------1---1----------
G------------------0---0---0---------------------0---0---0----
D-------------------------------------------------------------
A--------------3---------3-------------------3----------3-----
E-------------------------------------------------------------

              REm                    FA (1/2cejilla 1)    MIm
E----1-0--------------1-----------------------1-------------0-----
B-1------3-1---3--------3-----3------------1----1---------0---0---
G-----------------2---------2-----------2---------2-----0-------0-
D--------------0----0-----0-----0-2--3----------------------------
A-----------------------------------------------------------------
E-----------------------------------------------------0-----------

   REm         SOL M          FA  (1/2cejilla 3)        DO M     DOM(+SOL7)
E-------1------------0-----------5----3----------------------0-----0-
B-----3---3--------3---3-------------------6---5----3------1---1---1-
G---2-------2----0-------0----------5---5----5---5-------0---------0-
D-0---------------------------3------------------------------------2-
A------------------------------------------------------3-----------3-
E--------------3---------------------------------------------------3-


DoM(+Sol) Sol 7

E----0-   E----1-
B----1-   B----3-
G----0-   G----0-
D----2-   D----0-
A----3-   A----2-
E----3-   E----3-

  DOM(+SOL)   SOL7      DOM(+SOL)
Alla  donde se cruzan los caminos,
                          Rem  (aquí se puntea la cuarta cuerda en el
                                aire, 2º traste y tercer traste)
donde el mar no se puede concebir,
FA            MIm               REm
donde regresa siempre el fugitivo.
SOL                 FA  --> DO  (igual que los 2 últimas notas del intro)
Pongamos que hablo de Madrid.

Donde el deseo viaja en ascensores
un agujero queda para mi
que me dejo la vida en sus rincones.
Pongamos que hablo de Madrid.

Las niñas ya no quieren ser princesas
y a los niños les da por perseguir
el mar dentro de un vaso de ginebra.
Pongamos que hablo de Madrid.

Los pájaros visitan al psiquiatra,
las estrellas se olvidan de salir,
la muerte viaja en ambulancias blancas.
Pongamos que hablo de Madrid.

El sol es una estufa de butano,
la vida un metro a punto de partir,
hay una jeringuilla en el lavabo.
Pongamos que hablo de Madrid.

Cuando la muerte venga a visitarme
que me lleven al sur, donde nací,
aqu¡ ya no queda sitio para nadie.
Pongamos que hablo de Madrid.

Quien quiera saber alguna de Joaquín sabina que me envíe un correo
Suggest correction
Give kudos to tab author, rate the tab!
1 2 3 4 5
comments
print report bad tab
guest
Wanna post a correction for this tab? Suggest correction