Oops, an error
Loading. Please wait.

Que Demasiao Tab

115 views 1 this week
no commentswrite comment
1 2 3 4 5
1 last vote to show rating
add to favorites
launch autoscroll
font size
0
reset
how to read this tab
guitar tuner
Autoscroll
slow
fast
+/-
esc
set tempo
stop
Help us to improve Ultimate-Guitar.com Take our survey!
×
   INTRO:

          A7               E7        C#m  F#m             B7

   e-------3-2----------------4-5-7-8-9----14s15--14-------15--
   b-0-2-5-----5-2-5----0-2-5-5-5-7------------------17-14-----
   g-----------------------------------------------------------
   d-----------------------------------------------------------
   a-----------------------------------------------------------
   e-----------------------------------------------------------

           (parón)                             C9
              E
   e-14---------------4-----4------3----2---0--x-x-----
   b----17-14-17--------3-----3-------------0--3-3-----
   g-----------------4----4------3--3--2--2-1--3-3-----
   d-------------------------------------------2-2-----
   a-------------------------------------------3-3-----
   e-------------------------------------------x-x-----


    E          B7         E  E7
  Macarra de ceñido pantalón,
  A            A7           E    E7
  pandillero tatuado y suburbial,
  A             A7           F#m
  hijo de la derrota y el alcohol,
    F#m7        B7
  sobrino del dolor,
           E       A7      F#m7  B7
  primo hermano de la necesidad.

     E           B7           E   E7
  Tuviste por escuela una prisión,
  A               A7         E  E7
  por maestra una mesa de billar.
  A               A7           F#m
  Te lo montas de guapo y de matón,
    F#m7          B7
  de golfo y de ladrón.
        E         D   A     E   E7
  Y de darle al canuto cantidad.

   A                      F#m
  Aún no tienes años pa votar
       B7                   G#m
  y ya pasas del rollo de vivir.
  C#             C#7         F#m
  Chorizo y delincuente habitual
     F#m7         B7
  contra la propiedad
     E             A7      F#m7  B7
  de los que no te dejan elegir.

  (sigue igual)
  Si al fondo del oscuro callejón
  Un Bugatti te come la moral.
  A punta de navaja y empujón
  El coche vacilón
  Va cambiando de dueño y de lugar.

  Que no se mueva nadie -has ordenao-
  Y van ya quince atracos en un mes.
  Tu vieja apura el vino que has mercao
  Y nunca ha preguntao:
  ¿De dónde sale todo este parné?

  La pasma va pisándote el talón,
  Hay bronca por donde quiera que vas,
  Las chavalas del barrio sueñan con
  Robarte el corazón
  Si el sábado las llevas a bailar.

  SOLO:  (los acordes que acompañan son los mismos de la estrofa)

  e---------------------------------------------------------------------
  b---------------------------------------------------------------------
  g-------11h12-11--------------------9----11h12-11-9-9s13b-------------
  d-13s14----------14-14-13-12---9h11---11------------------------------
  a---------------------------------------------------------------------
  e---------------------------------------------------------------------

  e-11h12----14h15p14p12--------------------12--------------------------
  b-------14-------------14--14-13-12--10h12---12-11-10-----------------
  g-----------------------------------------------------9-12-11--6-9-8--
  d---------------------------------------------------------------------
  a---------------------------------------------------------------------
  e---------------------------------------------------------------------


  Una noche que andabas desarmao
  La muerte en una esquina te esperó,
  Te pegaron seis tiros descaraos
  Y luego desangrao
  Te ingresaron en el piramidón.
  Pero antes de palmarla se te oyó
  Decir: "Que demasiao,
  De esta me sacan en televisión".


  símbolos: h (hammer on)
            s (slide)
            p (pull off)
            b (bending)
Suggest correction
Give kudos to tab author, rate the tab!
1 2 3 4 5
comments
print report bad tab
guest
You may want to rate the tab now too:
select rating
Wanna post a correction for this tab? Suggest correction