Oops, an error
Loading. Please wait.

Rosa De Lima Bass Tab

62 views 1 this week
no commentswrite comment
1 2 3 4 5
3 more votes to show rating
add to favorites
launch autoscroll
font size
0
reset
guitar tuner
Autoscroll
slow
fast
+/-
esc
set tempo
stop
Help us to improve Ultimate-Guitar.com Take our survey!
×
ESTA CANCION ES SUPER FACIL Y SENCILLA LE RECOMIENDO QUE LA TONQUEN
CON EL PULGAR Y LOS DEDOS INDICE Y ANULAR. HACIENDO LA TECNICA DEL
SLAP PERO MAS SUAVE !. DISFRUTENLA (:

INTR:

E---9----9---7---7---9---9---7--7-----------5---5---5---5---------
A-9---9----7---7---9---9---7--7----5---5--5---5---5---5-----------
D--------------------------------5---5----------------------------
G-----------------------------------------------------------------


ESTROFA: X2
E----5---5-------------5---5------------9------------7---7-
A--5---5----5---5----5---5-----5---5--9---9--9-8-7-7---7---
D---------5---5-------------5---5--------------------------
G----------------------------------------------------------

E------------5---5-
A---5---5--5---5---
D-5---5------------
G------------------

CAMBIO:
E-------------------------------------9-----------7---7-
A----7---7---5---5---7---7---5---5--9---9-9-8-7-7---7---
D--7---7---5---5---7---7---5---5------------------------
G-------------------------------------------------------

E------------5---5-
A---5---5--5---5---
D-5---5------------
G------------------

CORO:
                                                   X5
E----3---3------------5---5---5---5--------------------
A--3---3-----5---5--5---5---5---5----------------------
D----------5---5---------------------------------------
G------------------------------------------------------

INTR:

E---9----9---7---7---9---9---7--7-----------5---5---5---5---------
A-9---9----7---7---9---9---7--7----5---5--5---5---5---5-----------
D--------------------------------5---5----------------------------
G-----------------------------------------------------------------

ESTROFA: X2
E----5---5-------------5---5------------9------------7---7-
A--5---5----5---5----5---5-----5---5--9---9--9-8-7-7---7---
D---------5---5-------------5---5--------------------------
G----------------------------------------------------------

E------------5---5-
A---5---5--5---5---
D-5---5------------
G------------------


CAMBIO:
E-------------------------------------9-----------7---7-
A----7---7---5---5---7---7---5---5--9---9-9-8-7-7---7---
D--7---7---5---5---7---7---5---5------------------------
G-------------------------------------------------------

E------------5---5-
A---5---5--5---5---
D-5---5------------
G------------------


ESTA CANCION VA DEDICADA A CAROLINE (:
Suggest correction
Give kudos to tab author, rate the tab!
1 2 3 4 5
comments
print report bad tab
guest
You may want to rate the tab now too:
select rating
Wanna post a correction for this tab? Suggest correction