Oops, an error
Loading. Please wait.

Tan Joven Y Tan Viejo chords

version 3
version 3

Whole song

169 views 1 this week
no commentswrite comment
1 2 3 4 5
1 last vote to show rating
add to favorites
×
Save as Personal and add changes to this tab that will be seen only by you. Learn more ›
×
You can save this tab as Personal to edit and correct it or add notes. All changes will be seen only by you. Learn more »
launch autoscroll
font size
0
reset
transpose
0
reset
display chords
guitar tuner
edit
Autoscroll
slow
fast
+/-
esc
set tempo
stop
Strumming
There is no strumming pattern for this song yet. and get +5 IQ
Disfrutad de la magnifica y verdadera Tan joven y tan viejo (like a rolling stone)

Intro: G                         C              Am
E      |-|----3--5--7-|---8-8----8-7-|--73-7-|-3--5--7--8--7-7-3-|--3--5--7-8--7-7--5-
B      |-|------------|--------------|--------|-------------------|---------------------
G      |-|--4----5--7-|-9---9--9---7-|--7-----|-4--5--7--9--77-4-|--4--5--7--9-7-7--5-
D      |-|------------|--------------|--------|-------------------|---------------------
A      |-|------------|--------------|--------|-------------------|---------------------
E      |-|------------|--------------|--------|-------------------|---------------------

                               G
E      |-|---------------|----------3--------|--
B      |-|-------0h10h1-|------0h1---1--0---|--
G      |-|-----0---------|-------------------|--
D      |-|---2-----------|-------------------|--
A      |-|-3-------------|-------------------|--
E      |-|---------------|-0-3---------------|--


G                                    C.               (53, 52, 50)
Lo primero que quise fue marcharme bien lejos
               Am    D                     G       
En el album de cromos de la resignacion
G                                    C.               (53, 52, 50)
Pegabamos los niños que odiaban los espejos
               Am    D                     G       
Guantes de Rita Hayworth, calles de Nueva York.

Apenas vi que un ojo me guiñaba la vida
Le pedi que a su antojo dispusiera de mi
Ella me dio las llaves de la ciudad prohibida
Yo todo lo que tengo que es nada se lo di

Asi creci volando y vole tan de prisa
Que hasta mi propia sombra de vista me perdio
Para borrar mis huellas destroce mi camisa
Confundi con estrellas las luces de neon

PUNTEO

Hice trampas al poker, defraude a mis amigos
Sobre el banco de un parque dormi como un leon
Por decir lo que pienso sin pensar lo que digo
Mas de un beso me dieron y mas de un bofeton

Lo que se del olvido lo aprendi de la luna
Lo que se del pecado lo tuve que buscar
Como un ladron debajo de la falda de alguna
De cuyo nombre ahora no me quiero acordar

Asi que de momento nada de adios muchachos
Me duermo en los entierros de mi generacion
Cada noche me invento, todavia me emborracho
Tan joven y tan viejo, like a Rolling Stone.

Alguna sugerencia a : tellez_tellez@

            
            
Suggest correction
Creating personal tab
Creating personal tab
You can edit any tab online and save it as your Personal.

You can edit, replace or remove any tab part or add personal notes – all changes will be seen only by you.

Personal tabs can be accessed anytime from any device, even offline.
Learn more »
Give kudos to tab author, rate the tab!
1 2 3 4 5
comments
print report bad tab
guest
Wanna post a correction for this tab? Suggest correction