Oops, an error
Loading. Please wait.

Vamonos Pa'l Sur Tab

20 views 1 this week
no commentswrite comment
1 2 3 4 5
3 more votes to show rating
add to favorites
launch autoscroll
font size
0
reset
how to read this tab
guitar tuner
×
Best way to learn
"Vamonos Pa'l Sur"
Autoscroll
slow
fast
+/-
esc
set tempo
stop
Este es el riff de introducción de este temazo, es el mismo que
hace en los puentes musicales entre cada estrofa. La letra del
tema y los acordes están muy bien sacados en la transcripción
de Paulino Jiménez (paulinojimenez@ aquí en el atame.

e|-9h10p9-7--------------------------------------|  \
B|----------10-8h10p8-7--------------------------|  |
G|----------------------9-9-7-6------------------|  |
D|------------------------------7----5-9-7-5---5-|  |
A|---------------------------------7---------7---|  |
E|-----------------------------------------------|  |
						     > Intro de Guitarra con distorsión x1
e|-9h10p9-7-----------------------------------|     |
B|----------10-8h10p8-7-------------------7---|     |
G|----------------------9-9-7-6-----9-7-9---9-|     |
D|------------------------------7-------------|     |
A|--------------------------------------------|     |
E|--------------------------------------------|     /
Suggest correction
Give kudos to tab author, rate the tab!
1 2 3 4 5
comments
print report bad tab
guest
You may want to rate the tab now too:
select rating
Wanna post a correction for this tab? Suggest correction