Oops, an error
Loading. Please wait.

Whisky Sin Soda Tab

45 views 1 this week
no commentswrite comment
1 2 3 4 5
3 more votes to show rating
add to favorites
launch autoscroll
font size
0
reset
how to read this tab
guitar tuner
Autoscroll
slow
fast
+/-
esc
set tempo
stop
Help us to improve Ultimate-Guitar.com Take our survey!
×
Intro

1|-------3-------------------------5---------------
2|-----3-------------------------7-----------------
3|---4-------------------------7-------------------
4|-5-------------------------7---------------------


1|-------3-------------------------5---------------
2|-----3-------------------------7-----------------
3|---4-------------------------7-------------------
4|-5-------------------------7---------------------
   Sólo cumplo años los años bisiestos que acaban en dos.

1|-------3-------------------------5---------------
2|-----3-------------------------7-----------------
3|---4-------------------------7-------------------
4|-5-------------------------7---------------------
Gasto más que gano, vivo con lo puesto menos un botón.

1|-------3-------------------------5---------------
2|-----3-------------------------7-----------------
3|---4-------------------------7-------------------
4|-5-------------------------7---------------------
No tengo costumbre de guardar la ropa si voy a nadar.

1|-------3------------------------------5----------
2|-----5------------------------------5------------
3|---4------------------------------6--------------
4|-2------------------------------7----------------
Nunca le hago ascos a la última copa ni al próximo bar.

1|-------3-------------------------5---------------
2|-----3-------------------------7-----------------
3|---4-------------------------7-------------------
4|-5-------------------------7---------------------
Vendí por amores y no por dinero mi alma a Belcebú.

1|-------3----------------------------5------------
2|-----3----------------------------5--------------
3|---4----------------------------6----------------
4|-5----------------------------7------------------
Y de las dos majas de Goya prefiero la misma que tú.

                    1|-------3----
                    2|-----3------
                    3|---4--------
                    4|-5----------  
 ¿Qué voy a hacerle yo,
        
         1|-------5------
         2|-----5--------
         3|---6----------
         4|-7------------
 si me gusta el güisqui sin soda,
              
          1|-3--5--5---3------------------5--
          2|-3--7--6---3----------------5----
          3|-4--7--6---4--------------6------
          4|-5--7--7---5------------7--------
 el sexo sin bo o da, las penas con pan?
                     
                   1|-------5------
                   2|-----5--------
                   3|---6----------
                   4|-7------------
 ¿Qué voy a hacerle yo, 
         
         1|-------5------
         2|-----5--------
         3|---6----------
         4|-7------------
 si el amor me gusta sin celos,
               1|-3--5--5---3-----------5--
               2|-3--7--6---3---------5----
               3|-4--7--6---4-------6------
               4|-5--7--7---5-----7--------
 la muerte sin due e lo, Eva con Adán,
         1|-------3-----------5-----
         2|-----3-----------5-------
         3|---4-----------6---------
         4|-5-----------7-----------
 Eva con Adán? Eva con Adán?

Inter (G,A,G,A,G,A,G,D,A,G,A)

 Opino con Sade que al deseo los frenos le sientan fatal.
 Nunca entiendo el móvil del crimen, a menos que sea pasional.
 Si estrené algún himen, si rompí algún plato en mi mocedad.
 Hoy, ta retirado, sólo robo y mato por necesidad.
 Siempre que la muerte viene tras mi pista me escapo por pies.
 Hay que estar al loro si eres trapecista y saltas sin red.
 ¿Qué voy a hacerle yo,
 si me gusta el güisqui sin soda,
 el sexo sin boda,
 las penas con pan?
 ¿Qué voy a hacerle yo, 
 si el amor me gusta sin celos,
 la muerte sin duelo,
 Eva con Adán?
Suggest correction
Give kudos to tab author, rate the tab!
1 2 3 4 5
comments
print report bad tab
guest
You may want to rate the tab now too:
select rating
Wanna post a correction for this tab? Suggest correction