Oops, an error
Loading. Please wait.

La Melodía Tab

127 views 3 this week
no commentswrite comment
1 2 3 4 5
3 more votes to show rating
add to favorites
launch autoscroll
font size
0
reset
how to read this tab
guitar tuner
×
Best way to learn
"La Melodía"
Autoscroll
slow
fast
+/-
esc
set tempo
stop
VERSIÓN DE INTRO SENCILLA PARA GUITARRA
¡ESPERO QUE SEA DE SU AGRADO!


Lo que está entre paréntesis se toca "suave".

INTRO:

   A
e|-------------0---------4-p-3-2-0-|
B|-------0-2-----------------------|
G|-----2-----2--------2)-----------|
D|---2-------------(2--------------|
A|-0-------------0-----------------|
E|---------------------------------|

   F#m
e|--------------0--------------0-|
B|-------0-2-----------5-p-3-2---|
G|-----2------2-----2------------|
D|---4------------4--------------|
A|-4-----------------------------|
E|-------------------------------|

   D                  D
e|------------------0--------------0-------|
B|-------0--5-p-3-2--------0--2--2------0--|
G|-----2----------------2--2--2----------2-|
D|---0----------------0----0--2------------|
A|-0-----------------------------------2---|
E|-----------------------------------------|
Suggest correction
Give kudos to tab author, rate the tab!
1 2 3 4 5
comments
print report bad tab
guest
You may want to rate the tab now too:
select rating
Wanna post a correction for this tab? Suggest correction