Oops, an error
Loading. Please wait.

Me Levantaré Chords

50 views 1 this week
no commentswrite comment
1 2 3 4 5
3 more votes to show rating
add to favorites
launch autoscroll
font size
0
reset
transpose
0
reset
simplify chords
display chords
guitar tuner
×
Best way to learn
"Me Levantaré"
Autoscroll
slow
fast
+/-
esc
set tempo
stop
Bueno la intro esta en piano pero aki
se las dejo en guitarra:

    D

e-|-----0---3---2---------0---3---2--|
B-|----------------------------------|
G-|---2---2---2---2----2----2---2----|
D-|-0----------------0---------------|
A-|----------------------------------|
E-|----------------------------------|

    D/G

e-|-----0---3---2---------0---3---2--|
B-|----------------------------------|
G-|---2---2---2---2----2----2---2----|
D-|----------------------------------|
A-|----------------------------------|
E-|-3----------------3---------------|


       D          A/C#        G
//Me levantare y adorare al se
Suggest correction
Give kudos to tab author, rate the tab!
1 2 3 4 5
comments
print report bad tab
guest
You may want to rate the tab now too:
select rating
Wanna post a correction for this tab? Suggest correction