Oops, an error
Loading. Please wait.

Amor Patético tab

95 views 1 this week
no commentswrite comment
1 2 3 4 5
3 more votes to show rating
add to favorites
×
Save as Personal and add changes to this tab that will be seen only by you. Learn more ›
×
You can save this tab as Personal to edit and correct it or add notes. All changes will be seen only by you. Learn more »
launch autoscroll
font size
0
reset
how to read this tab
guitar tuner
edit
Autoscroll
slow
fast
+/-
esc
set tempo
stop
ACORDES A UTILIZAR:
         Em      B*     Am     Cmaj7
E |-----------------------------------|
B |------0-------0-------1-------0----|
G |------0-------2-------2-------0----|
D |------2-------4-------2-------2----|
A |------2-------2-------0-------3----|
E |-----------------------------------|

DEDICADA: PARA LA MUJER QUE AUN AMO Y HASTA HOY NO PUEDO
OLVIDAR DE SU AMOR PATETICO
DE: ALEXIS RIVERA. 
PA ARRIBA EL TALENTO ECUATORIANO

ESTA ES MI PRIMERA TRANSCRIPCION ASI Q DISCULPARAN CUALQUIER ERROR
TIENEN QUE OIR LA CANCION PARA PODER TOCARLA AUNQUE ES MUY SENCILLA
ESTE TAB ES SOLO PARA QUE SE GUIEN PERO ESCUCHEN LA CANCION PARA
QUE VEAN DONDE VAN LOS TIEMPOS.
****************************************************************
Intro:
     Em                            B*
E |-------------------------------------------------------------|
B |------0----0-------0----0----------0-----0---------0-----0---|
G |-----0------0-----0------0--------2--------2------2--------2-|x2
D |----2----2-------2----2----------4-----4---------4----4------|
A |---2----2-------2----2----------2-----2---------2----2-------|
E |-------------------------------------------------------------|

     Em
E |-------------------------------------------------------------|
B |------0-------------------------------0-----0-------------0--|
G |-----0---------------------------------0---0---------------0-|
D |----2------------------------------2------2-------------2----|
A |---2------------------------------2------2-------------2-----|
E |-------------------------------------------------------------|
     No es que siempre te extrañe    pero olvidarte es ese detalle

     B*
E |-------------------------------------------------------------|
B |------0-------------------------------0-----0-------------0--|
G |-----2---------------------------------2---2---------------2-|
D |----4------------------------------4------4-------------4----|
A |---2------------------------------2------2-------------2-----|
E |-------------------------------------------------------------|
        Que aun no puedo no                  que aun no puedo no

     Em
E |-------------------------------------------------------------|
B |------0-------------------------------0-----0-------------0--|
G |-----0---------------------------------0---0---------------0-|
D |----2------------------------------2------2-------------2----|
A |---2------------------------------2------2-------------2-----|
E |-------------------------------------------------------------|
     Me prometí superarte                  Y hasta la fecha esto
                                             ha costado bastante
     B*
E |-------------------------------------------------------------|
B |------0-------------------------------0-----0-------------0--|
G |-----2---------------------------------2---2---------------2-|
D |----4------------------------------4------4-------------4----|
A |---2------------------------------2------2-------------2-----|
E |-------------------------------------------------------------|
      Aun no puedo no                      aun no puedo no
      Am
E |-------------------------------------------------------------|
B |------1-------------------------------1-----1-------------0--|
G |-----2---------------------------------2---2---------------2-|
D |----2------------------------------2------2-------------4----|
A |---0------------------------------0------0-------------2-----|
E |-------------------------------------------------------------|
    Yo busque alguien que este conmigo Para poder recobrar todo
                                              aquello perdido

     Em
E |-------------------------------------------------------------|
B |--------------------0-----------------0------0------------0--|
G |-------------------0--------------------0---0--------------0-|
D |------------------2-----------------2------2------------2----|
A |-----------------2-----------------2------2------------2-----|
E |-------------------------------------------------------------|
  Y sabes todo iba bien como te digo hasta que comencé a
                                              compararla contigo
      Am
E |-------------------------------------------------------------|
B |------1-------------------------------1-----1-------------0--|
G |-----2---------------------------------2---2---------------2-|
D |----2------------------------------2------2-------------4----|
A |---0------------------------------0------0-------------2-----|
E |-------------------------------------------------------------|
Tanto que me imaginaba que a veces eras tu y no ella con la que me
                                       besaba hasta que se aburrio
     Em
E |-------------------------------------------------------------|
B |------0-------------------------------0-----0-------------0--|
G |-----0---------------------------------0---0---------------0-|
D |----2------------------------------2------2-------------2----|
A |---2------------------------------2------2-------------2-----|
E |-------------------------------------------------------------|
       de que tanto te nombrara             y desde entonces no
                                                 he sabido nada

       Cmaj7                                   B*
E |------------------------------------------------------------|
B |------0----------------0--------------------0-0-0-0-0-------|
G |-----0-------------------0------------------2-2-2-2-2-------|
D |----2----------------2----------------------4-4-4-4-4-------|
A |---3----------------3-----------------------2-2-2-2-2-------|
E |------------------------------------------------------------|
   seguramente se canso de ser otra mas que no pudo librarme de
                                             este amor patético

REPETIR EL INTRO: X8
     Em
E |------------------------------------------------------------|
B |------0-------------------------------0-----0------------0--|
G |-----0---------------------------------0---0--------------0-|
D |----2------------------------------2------2------------2----|
A |---2------------------------------2------2------------2-----|
E |------------------------------------------------------------|
     De ti ya no espero nada               de mi mente quisiera
                                                que te alejaras
     B*
E |------------------------------------------------------------|
B |------0-------------------------------0-----0------------0--|
G |-----2---------------------------------2---2--------------2-|
D |----4------------------------------4------4------------4----|
A |---2------------------------------2------2------------2-----|
E |------------------------------------------------------------|
        y no vuelvas no                      no

     Em
E |------------------------------------------------------------|
B |------0-------------------------------0-----0------------0--|
G |-----0---------------------------------0---0--------------0-|
D |----2------------------------------2------2------------2----|
A |---2------------------------------2------2------------2-----|
E |------------------------------------------------------------|
     Ayer sentí que te odiaba porque encendí la radio y justo
                                    sonaba esa maldita canción
      B*
E |------------------------------------------------------------|
B |------0-------------------------------0-----0------------0--|
G |-----2---------------------------------2---2--------------2-|
D |----4------------------------------4------4------------4----|
A |---2------------------------------2------2------------2-----|
E |------------------------------------------------------------|
   esa maldita canción                     que hoy es mi obsesión
      Am
E |------------------------------------------------------------|
B |------1-------------------------------1-----1------------0--|
G |-----2---------------------------------2---2--------------2-|
D |----2------------------------------2------2------------4----|
A |---0------------------------------0------0------------2-----|
E |------------------------------------------------------------|
    Y no hubo nadie que este conmigo la que le pueda negar que
                                              yo amándote sigo
     Em
E |------------------------------------------------------------|
B |------0-------------------------------0-----0------------0--|
G |-----0---------------------------------0---0--------------0-|
D |----2------------------------------2------2------------2----|
A |---2------------------------------2------2------------2-----|
E |------------------------------------------------------------|
   porque sin ti no se bien y es que me olvido que te ame te
                                marchaste y hoy odio a cupido
      Am
E |------------------------------------------------------------|
B |------1-------------------------------1-----1------------0--|
G |-----2---------------------------------2---2--------------2-|
D |----2------------------------------2------2------------4----|
A |---0------------------------------0------0------------2-----|
E |------------------------------------------------------------|
sin ti yo ya no soy nada si no estas aquí porque el perfume tuyo
                                            sigue en mi almohada
     Em
E |------------------------------------------------------------|
B |------0-------------------------------0-----0------------0--|
G |-----0---------------------------------0---0--------------0-|
D |----2------------------------------2------2------------2----|
A |---2------------------------------2------2------------2-----|
E |------------------------------------------------------------|
     explícame por favor anoche que te pensaba y si el amor
                                      amaneció y no estabas
      Cmaj7                                    B*
E |------------------------------------------------------------|
B |------0----------------0--------------------0-0-0-0-0-------|
G |-----0-------------------0------------------2-2-2-2-2-------|
D |----2----------------2----------------------4-4-4-4-4-------|
A |---3----------------3-----------------------2-2-2-2-2-------|
E |------------------------------------------------------------|
   seguramente es otro de esos sueñoS donde estamos juntos y al
                                      otro dia todo es patético
 REPETIR EL INTRO X2
      Em
E |------------------------------------------------------------|
B |------0-------------------------------0-----0------------0--|
G |-----0---------------------------------0---0--------------0-|
D |----2------------------------------2------2------------2----|
A |---2------------------------------2------2------------2-----|
E |------------------------------------------------------------|
   Y vago solo sin que nadie me comprenda pues mi realidad es
                               horrenda todo me recuerda a ti
     B*
E |------------------------------------------------------------|
B |------0-------------------------------0-----0------------0--|
G |-----2---------------------------------2---2--------------2-|
D |----4------------------------------4------4------------4----|
A |---2------------------------------2------2------------2-----|
E |------------------------------------------------------------|
  y sigo ciego sin poder quitar mi venda mi sonrisa que aparenta
                              que no te amo y soy un infeliz
     Em
E |------------------------------------------------------------|
B |------0-------------------------------0-----0------------0--|
G |-----0---------------------------------0---0--------------0-|
D |----2------------------------------2------2------------2----|
A |---2------------------------------2------2------------2-----|
E |------------------------------------------------------------|
     Y vivo solo sin que nadie me comprenda mi vida no hay quien
                             la entienda y no es justo vivir así
     B*
E |------------------------------------------------------------|
B |------0-------------------------------0-----0------------0--|
G |-----2---------------------------------2---2--------------2-|
D |----4------------------------------4------4------------4----|
A |---2------------------------------2------2------------2-----|
E |------------------------------------------------------------|
   amándote queriéndote extrañándote de mil maneras y al final
                                    usted por mi no va a venir
      Am
E |------------------------------------------------------------|
B |------1-------------------------------1-----1------------0--|
G |-----2---------------------------------2---2--------------2-|
D |----2------------------------------2------2------------4----|
A |---0------------------------------0------0------------2-----|
E |------------------------------------------------------------|
    Y aunque busque a alguien que este conmigo para poder
                            recobrar todo el tiempo perdido
     Em
E |------------------------------------------------------------|
B |------0-------------------------------0-----0------------0--|
G |-----0---------------------------------0---0--------------0-|
D |----2------------------------------2------2------------2----|
A |---2------------------------------2------2------------2-----|
E |------------------------------------------------------------|
   nada de eso esta bien porque no te olvido mi peor pesadilla
                                       hoy la vivo contigo
      Am
E |------------------------------------------------------------|
B |------1-------------------------------1-----1------------0--|
G |-----2---------------------------------2---2--------------2-|
D |----2------------------------------2------2------------4----|
A |---0------------------------------0------0------------2-----|
E |------------------------------------------------------------|
la verdad no imaginaba que mi cruz eras tu el amor porque yo
                          tanto luchaba dime porque se murió
     Em
E |------------------------------------------------------------|
B |------0-------------------------------0-----0------------0--|
G |-----0---------------------------------0---0--------------0-|
D |----2------------------------------2------2------------2----|
A |---2------------------------------2------2------------2-----|
E |------------------------------------------------------------|
     si jurabas que me amabas o es que entonces no sentiste nada
       Cmaj7                                               Em
E |------------------------------------------------------------|
B |------0----------------0--------------------0-0-0-0-0----0--|
G |-----0-------------------0------------------2-2-2-2-2----0--|
D |----2----------------2----------------------4-4-4-4-4----2--|
A |---3----------------3-----------------------2-2-2-2-2----2--|
E |------------------------------------------------------------|
  seguramente yo seré otro de esos hombres que no pudo convencer
                                                un amor patético.

            
            
Suggest correction
Creating personal tab
Creating personal tab
You can edit any tab online and save it as your Personal.

You can edit, replace or remove any tab part or add personal notes – all changes will be seen only by you.

Personal tabs can be accessed anytime from any device, even offline.
Learn more »
Give kudos to tab author, rate the tab!
1 2 3 4 5
comments
print report bad tab
guest
Wanna post a correction for this tab? Suggest correction