Oops, an error
Loading. Please wait.
5 views 1 this week
no commentswrite comment
1 2 3 4 5
3 more votes to show rating
add to favorites
launch autoscroll
font size
0
reset
how to read this tab
guitar tuner
×
Best way to learn
"No, No"
Autoscroll
slow
fast
+/-
esc
set tempo
stop
Intro
Cm x3 D x3
Gm D# Cm D X2

VERSO:
                      Gm
haber por que no te defiendes?
                     Cm
si te apuntan con el dedo!
                     D
acaso te as guardado algo?
                    Gm
que te duele ya contarme!
                      Cm
me queda claro que me engañas
                     D
y me mientes sin piedad

                     Gm
ahora quiero que te vayas
                       Cm
no me supliques mas llorando
                       D
que la comedia ha terminado
                       Gm
este capitulo se ha acabado
                Cm
no pidas mas perdon
                      D
mi corazon ya te olvidooo...

CORO:

  Gm                    Cm
y no no, no te voy a llorar
G#     Fm             D
no no, ni una lagrima mas
Gm                       Cm
no no, ni un suspiro por tii
G#     Fm             G
no no, ya mas nada de ti

Cm x3 D x3
Gm D# Cm D X2


VERSO:
haber por que no te defiendes?
si te apuntan con el dedo!
acaso te as guardado algo?
que te duele ya contarme!
me queda claro que me engañas
y me mientes sin piedad

ahora quiero que te vayas
no me supliques mas llorando
que la comedia ha terminado
este capitulo se ha acabado
no pidas mas perdon
mi corazon ya te olvidooo...

CORO:

Gm                    Cm
y no no, no te voy a llorar
G#     Fm             D
no no, ni una lagrima mas
Gm                       Cm
no no, ni un suspiro por tii
G#     Fm             D
no no, ya mas nada de ti

Gm                    Cm
y no no, no te voy a llorar
G#     Fm             D
no no, ni una lagrima mas
Gm                       Cm
no no, ni un suspiro por tii
G#     Fm             G
no no, ya mas nada de ti

Final

Fm-Bb D#-G# D-G Cm

Solo
E-13-14-15---------/20-18-20--18-16-15-16----15-------------------------
B----------15-16-18-----------------------18----16-18-15-16----15-------
G-----------------------------------------------------------17----15-17~
D-----------------------------------------------------------------------
A-----------------------------------------------------------------------
E-----------------------------------------------------------------------

E-------------------/11-10------------------------------13-15-16\-------
B-------------/13\-----------------------------13-15-16-----------------
G--/8\--/12\-----------------12-------12-13-15--------------------------
D-------------------------------15-13-----------------------------------
A-----------------------------------------------------------------------
E-----------------------------------------------------------------------

E-/18p15--------------------19----19-----------------------------------
B-------16--------------18b----18b---18br~~----------------------------
G---------17-----------------------------------------------------------
D-----------17---------------------------------------------------------
A-------------18-15-18-------------------------------------------------
E----------------------------------------------------------------------

G

Fm-Bb D#-D-G# D#-D-G D-Cm
Fm-Bb D#-D-G# D#
G x3
G x3 D Cm
Suggest correction
Give kudos to tab author, rate the tab!
1 2 3 4 5
comments
print report bad tab
guest
You may want to rate the tab now too:
select rating
Wanna post a correction for this tab? Suggest correction