Oops, an error
Loading. Please wait.

Por Qué Llorás Tab

4 views 3 this week
no commentswrite comment
1 2 3 4 5
3 more votes to show rating
add to favorites
launch autoscroll
font size
0
reset
how to read this tab
guitar tuner
×
Best way to learn
"Por Qué Llorás"
Autoscroll
slow
fast
+/-
esc
set tempo
stop
 consultas a jano24frets@
Intro

REm SOLm DO FA-LA
LA# DO LAm
LA# DO REm

Punteo
E-5--------p------5-/8-8-6-565----6~~-------------h------------------
B--6--5-6-6-5----6---------hph--8--------8-6-5-6-6-8-5------5-6-8----
G---7--------7-/7-------------------------------------5-/5-7---------
D--------------------------------------------------------------------
A--------------------------------------------------------------------
E--------------------------------------------------------------------

E-5-6--5--6-5------------------6--------8-------5--7--8--------6-----
B--h-------p--8-/8-10~~-------6-6------8-8-----5-5--5--5------6-6----
G---------------------------/7---7--7/9---9--/5-------------/7---7---
D--------------------------------------------------------------------
A--------------------------------------------------------------------
E--------------------------------------------------------------------

E-----8---10--10-8---8-----------p-----------------------------------
B----8-8--------p--10--10-8--9--9-8--8-------------------------------
G-7/9---9--------------------------10--10-7--------------------------
D--------------------------------------------------------------------
A--------------------------------------------------------------------
E--------------------------------------------------------------------

REm                               LA#
Dime por que lloras, no empieses ahora

E---------------10-12-1213-12--131210--------------
B------------10---------h--------p-p--10-13/15-13~~
G-------9-10---------------------------------------
D-10-12--------------------------------------------
A--------------------------------------------------
E--------------------------------------------------

   FA                LA
Si sabes que, pronto volveré
              REm                   LA#
Seca ya esas lagrimas, que me ponen triste
E----1-----p--------------p----------------
B-1-3-3-3-3-1----1-3-3-3-3-1---------------
G--h---------3----h---------3-1/2~~--------
D------------------------------------------
A------------------------------------------
E------------------------------------------
    FA              LA
Sienrieme y dame un beso amor.

   SOLm
Que piensas( piensas),
E--------------------------
B---8--8--8----8--8--8-----
G--------------------------
D-/5--5--5---/5--5--5------
A--------------------------
E--------------------------
                   REm
tan solo que no me ire
    SOLm                             REm
Tranquila(tranquila) por que contigo yo estaré
        LA#             SOLm         LA
Como el sol que en el invierno no se ve

Coro
           REm        LA#       FA            LA
Yo Siempre Te amaré y viviré pensando solo en ti
         REm       LA#           FA         LA
Nunca te dejaré no no lo aré, te lo puedo jurar
         REm           LA#    FA     LA          LA#  SOLm REm
Amor tu sabes bien que yo sin ti, no voy a hacer feliz

E-----8-------5-----------
B-------------------------
G--/7--7--75--5--53~~---
D-------------------------
A-------------------------
E-------------------------

Punteo
REm SOLm DO FA-LA
LA# DO LAm
LA# DO REm

             REm                    LA#
Seca ya esas lagrimas, que me ponen triste
    FA              LA
Sienrieme y dame un beso amor
            LA#                 FA
Aunque esta vez tenga que irme amor
       LA#        LA
te dejaré mi corazón

Coro
Yo Siempre Te amaré y viviré pensando solo en ti
Nunca te dejaré no no lo aré, te lo puedo jurar
Amor tu sabes bien que yo sin ti, no voy a hacer feliz

REm LA# FA LA  x2

bajada
RE-REb-DO LA# LA FA-SOL LA LA#

E--10-9-8----------------------------------14~~-----
B---------10-9------------------------14b16~~-------
G--------------10-10/12~~-/14~~-/15~~---------------
D---------------------------------------------------
A---------------------------------------------------
E---------------------------------------------------

Coro
           RE#m        SI        FA#           LA#
Yo Siempre Te amaré y viviré pensando solo en ti
         RE#m        SI        FA#           LA#
Nunca te dejaré no no lo aré, te lo puedo jurar
         RE#m        SI        FA#           LA#      SI SOL# RE#m
Amor tu sabes bien que yo sin ti, no voy a hacer feliz

E----9b11-11-11-11-11--11-11-11-11r9p7-------------------------------
B--7-----------------------------------7~~--9b11r9p7-----------------
G-----------------------------------------8----------8~~--/8~~-------
D--------------------------------------------------------------------
A--------------------------------------------------------------------
E--------------------------------------------------------------------
Suggest correction
Give kudos to tab author, rate the tab!
1 2 3 4 5
comments
print report bad tab
guest
You may want to rate the tab now too:
select rating
Wanna post a correction for this tab? Suggest correction