Oops, an error
Loading. Please wait.

Te Amaré Toda La Vida Tab

10 views 1 this week
no commentswrite comment
1 2 3 4 5
3 more votes to show rating
add to favorites
launch autoscroll
font size
0
reset
how to read this tab
guitar tuner
×
Best way to learn
"Te Amaré Toda La Vida"
Autoscroll
slow
fast
+/-
esc
set tempo
stop
Este es el intro de esta hermosa canción que va dedica a la mujer más
hermosa del mundo que se ha robado mi corazón....Para ti mi Aleja hermosa

Att: Diego Fdo Zapata R.

E------------------------------------------------------10h12--10---
B?6/8----8-8--8-8--8--10--8----------------------------------------
G--------------------------------------11----7---------------------
D-------------------------------------------------9----------------
A------------------------------------------------------------------
E------------------------------------------------------------------


E-------------------------------------------------------------9h7--
B----------------------13-12----10-12^-----------------------------
G?7h9-999---------------------------------12-----------------------
D------------------------------------------------------------------
A------------------------------------------------------------------
E------------------------------------------------------------------

E------------------------------------------------------------------
B---10/12--13-----13------10/12---15-----15------------------------
G------------12-----12---------------14-------14-------------------
D------------------------------------------------------------------
A------------------------------------------------------------------
E------------------------------------------------------------------


E------------------------------------------------------------------
B----12/15---15-15----15-15-15----15-15----------------------------
G------------------------------------------------------------------
D------------------------------------------------------------------
A------------------------------------------------------------------
E------------------------------------------------------------------
Suggest correction
Give kudos to tab author, rate the tab!
1 2 3 4 5
comments
print report bad tab
guest
You may want to rate the tab now too:
select rating
Wanna post a correction for this tab? Suggest correction