Oops, an error
Loading. Please wait.

Un País Con El Nombre De Un Río Tab

49 views 1 this week
no commentswrite comment
1 2 3 4 5
3 more votes to show rating
add to favorites
launch autoscroll
font size
0
reset
how to read this tab
guitar tuner
Autoscroll
slow
fast
+/-
esc
set tempo
stop
Help us to improve Ultimate-Guitar.com Take our survey!
×
Esta es la version arpegeada del tema.
no esta completa del todo, pero mas o menos es asi.

----------4---2------2------------------------------
--------2----------2-------------7---7--------------
------2-----2----2------2-------6-------------------
----4----------4------4-------9-----9----9-9-9------
----------------------------6-----------6-7-8-------
----------------------------------------------------

----------4---2------2------------------------------
--------2----------2-------------7---7--------------
------2-----2----2------2-------6-------------------
----4----------4------4-------9-----9----9-9-9------
----------------------------6-----------6-7-8-------
----------------------------------------------------

---------4-----------4-----------2------------------
-------2---2-------2---2-------2---2---------2------
-----2------2----2------2----2-------2-----2---2----
---4-----------2-----------1-------------2-------2--
---------------------------------------4------------
----------------------------------------------------

------------0-------0-------------------------0-----
--------0-------0-------0-------------0-----0---0---
------2---2---2---2---2-----------1-------1-------1-
----2---------------------------2---2---2-----------
--2---------------------------2---------------------
----------------------------0-----------------------

es mas o menos lo que seria el arpegio de este tema,
lo buneo que tiene que al ser un arpegio te da mas libertad
a la hora de interpretarlo, esa seria una forma de tocarlo.
espero que les guste.

Se lo dedico a mis mejores amigos fanaticos de Jorgito = que yo.
Tin y Ro. En particular a Rodri que hoy cumple años xD
Suggest correction
Give kudos to tab author, rate the tab!
1 2 3 4 5
comments
print report bad tab
guest
You may want to rate the tab now too:
select rating
Wanna post a correction for this tab? Suggest correction