Oops, an error
Loading. Please wait.

El Sueñero Tab

version 1
version 1

Whole song

76 views 1 this week
no commentswrite comment
1 2 3 4 5
3 more votes to show rating
add to favorites
launch autoscroll
font size
0
reset
how to read this tab
guitar tuner
×
Best way to learn
"El Sueñero"
Autoscroll
slow
fast
+/-
esc
set tempo
stop
lo publico con algunas adaptaciones mías

intro

bajo en G--------------------|

1--12-10-12-7----10-7-5-3---12-10-12-7-10-7-5-3--
2--------------------------------------10--------
3--12-11-12-7----11-7-5-4---12-11-12-7----7-5-4--
4------------------------------0--------------0--
5------------------------------------7-8--7-6----
6---------------------------------11-------------

A)
G
Silbo en la oscuridad
   Em      D#º Em
animal sin reposo
C/G
torres de la vigilia
               G
candela de los ojos
G
no se que pueda ser
       Em    Em/D#  Em/D Em/C#
si una curva del tiempo
C/G                  Fmaj7   G
o un hueco en el corazón atento

A)
Trigo sobre el brocal
para que coma el hambre
y abajo el peligroso
agujero de la sangre
no hallo, no puedo ver
mas que la noche alerta
y el misterio detrás
de las puertas


B)
C/G  D/F#       Em
Sueñero, jinete sin descanso;
A    C              G
sueñero, sobre un papel en blanco
Em   D        C            G
sueñero, centinela de mi alma,
Em   A              C       G
sueñero, duérmete y dame calma


1-3-2-5-3--|----------|-7-5-8-7-|-7-5---0----5-3--
2----------|-0-1-3-0--|---------|-----8----3------
3----------|----------|---------|-----------------
4---1-4-2--|---0------|---------|-0--------0------
5-3--------|-3--------|---6-9-7-|-------3---------
6----------|-----3----|-8-------|--------------3--


A)
Llevo cada mitad
como dos ríos gemelos
uno cruza la tierra
el otro fluye en el cielo
el de la oscuridad
no conoce el olvido
desvelado en seguir lo perdido

A)
Ay, este toro azul,
fatigado y sediento
de correr tras la nada
como la luz y el viento!
Ardo sin preguntar
igual que lo hace el fuego
tal vez halle cantando el sosiego

B)
Sueñero, enigma de un penitente
sueñero, andando entre los durmientes
sueñero, espina de las estrellas;
sueñero, olvídate de ella

tarareo sobre
C D#º Em
C/G D/F# G
C D#º Em Em/D
A C G

B)
Sueñero, jinete sin descanso
sueñero, sobre un papel en blanco
sueñero, centinela de mi alma
sueñero, duérmete y dame calma.


1-3-2-5-3--|----------|-7-5-8-7-|-7-5---0----5-3--
2----------|-0-1-3-0--|---------|-----8----3------
3----------|----------|---------|-----------------
4---1-4-2--|---0------|---------|-0--------0------
5-3--------|-3--------|---6-9-7-|-------3---------
6----------|-----3----|-8-------|--------------3--
Suggest correction
Give kudos to tab author, rate the tab!
1 2 3 4 5
comments
print report bad tab
guest
You may want to rate the tab now too:
select rating
Wanna post a correction for this tab? Suggest correction