Oops, an error
Loading. Please wait.

Está Cayendo Tab

60 views 1 this week
no commentswrite comment
1 2 3 4 5
3 more votes to show rating
add to favorites
launch autoscroll
font size
0
reset
how to read this tab
guitar tuner
Autoscroll
slow
fast
+/-
esc
set tempo
stop
Help us to improve Ultimate-Guitar.com Take our survey!
×
INTRO:

E||----------------------------------------------||
B||----------------------------------------------||
G||----------------------------------------------||
D||---------------------------------------9------||
A||--9--10----10--9--7s--10--9----9-10-9---------||
E||----------------------------------------------||

E||----------------------------------------------||
B||----------------------------------------------||
G||----------------------------------------------||
D||---------------------------------------11-----||
A||--9--10----10--9--7s--10--9----9-10-9---------||
E||----------------------------------------------||


  F#m7                     D                C#m7
//DIOS SEA EXALTADO,SUS ENEMIGOS SEAN ESPARCIDOS//
       Bm7         C#m7  D          E             F#m7
//PENETRANDO EN EL REINO DE LAS TINIEBLAS CON ALABANZA//
       D          E5/D         D         E5/D
//SUBIRE A LA MONTANA,GRITARE A LAS NACIONES
      Bm7              C#m7                 F#m7
QUE EL REINO DE LAS TINIEBLAS SE ESTA CAYENDO//


CORO:

       D        E        D/F#     E/G#
Esta cayendo oh? oh? Esta cayendo oh? oh?

   Bm7    C#m7              F#m7
Esta cayendo oh? oh? Esta cayendo.


por: gabo el jeniaL con j
Suggest correction
Give kudos to tab author, rate the tab!
1 2 3 4 5
comments
print report bad tab
guest
You may want to rate the tab now too:
select rating
Wanna post a correction for this tab? Suggest correction