Oops, an error
Loading. Please wait.

Serenata Tab

80 views 1 this week
no commentswrite comment
1 2 3 4 5
3 more votes to show rating
add to favorites
launch autoscroll
font size
0
reset
how to read this tab
guitar tuner
×
Best way to learn
"Serenata"
Autoscroll
slow
fast
+/-
esc
set tempo
stop
Esta es la introduccion a ala canción de Serenata
Con cariño y amor para mi esposa Lulú

E]--------------------------------------------------------------
A]--------------------------------------------------------------
D]--------------------------------------------------------------
G]--------------------------------------------------------------
B]8-------8--------------------------------------------------9--
e]-8-10-12-8-10-13-12-12-10-10-8-8-7-5-7-5-7-5-7-5-7-10-8-7-5---

E]--------------------------------------------------------------
A]--------------------------------------------------------------
D]--------------------------------------------------------------
G]--------------------------------------------------------------
B]5-----5----------------------------8-8-6-5--------------------
e]-5-7-8-5-7-10-8-8-7-7-5-5-5-8-7-6-5-5-------------------------

E]--------------------------------------------------------------
A]--------------------------------------------------------------
D]--------------------------------------------------------------
G]--------------------------------------------------------------
B]--10-10-10--10-10-10--9-9-9--9-9-9-8---8-8-8-7-6-5------------
e]8---------8---------8------8--------------5-------------------

E]--------------------------------------------------------------
A]--------------------------------------------------------------
D]--------------------------------------------------------------
G]--------7-7-7-7---------------------------------7-5-5---------
B]5-6-8------------------8-8-8---------------8-6-5--------------
e)-----5----------8-5-8-7-----7-10-7-10-8-7-5-------------------
Suggest correction
Give kudos to tab author, rate the tab!
1 2 3 4 5
comments
print report bad tab
guest
You may want to rate the tab now too:
select rating
Wanna post a correction for this tab? Suggest correction