Oops, an error
Loading. Please wait.

Allí Donde Fui Feliz Tab

61 views 1 this week
no commentswrite comment
1 2 3 4 5
3 more votes to show rating
add to favorites
×
Save as Personal and add changes to this tab that will be seen only by you. Learn more ›
×
You can save this tab as Personal to edit and correct it or add notes. All changes will be seen only by you. Learn more »
save as personal
new!
launch autoscroll
font size
0
reset
how to read this tab
guitar tuner
Autoscroll
slow
fast
+/-
esc
set tempo
stop
Bueno gente, espero les guste
y suene bien para utedes.
Saludos a toda Villa María
Córdoba ARGENTINA...


INTRO:

Violín:    G       C  G          D7
e|-------2-3-----------------------|
b|-1/3-5-----3-----5--5-3---3------|
G|-------------4----------4---4--2-|
D|---------------5-----------------|
A|---------------------------------|
E|---------------------------------|

           G       C  G               D7
e|-------2-3----------------2-----------|
b|-1/3-5-----3-----5--5-3-5---5--3------|
G|-------------4---------------4---4--2-|
D|---------------5----------------------|
A|--------------------------------------|
E|--------------------------------------|

   D7             G
e|-5/8--10-12-10-----|
b|-------------------|
G|----------------12-|
D|-------------------|
A|-------------------|
E|-------------------|


G          C       G
Allá donde fui feliz
                   G7    C
sé que pronto he de volver
D7                               G
y vendrán recuerdos a mi encuentro
    C          G         A7     D
los buenos momentos los reviviré.

Cuántas ganas de correr
por los montes donde ayer
fui creciendo libre como el viento
allí fui aprendiendo lo poco que sé.


C                D7           C
Quiero sentir todas las mañanas
    D7              Em
el aroma a pan casero
        A7         D
que mi madre preparó.
C                D7         C
Luego saludar a algún carrero
          D7           Em
gente buena de mi pueblo
          A7         D
gente con alma de sol.

Violín:    G       C  G          D7
e|-------2-3-----------------------|
b|-1/3-5-----3-----5--5-3---3------|
G|-------------4----------4---4--2-|
D|---------------5-----------------|
A|---------------------------------|
E|---------------------------------|

           G       C  G               D7
e|-------2-3----------------2-----------|
b|-1/3-5-----3-----5--5-3-5---5--3------|
G|-------------4---------------4---4--2-|
D|---------------5----------------------|
A|--------------------------------------|
E|--------------------------------------|

   D7             G
e|-5/8--10-12-10-----|
b|-------------------|
G|----------------12-|
D|-------------------|
A|-------------------|
E|-------------------|

Como en mi niñez iré
a entregarle al río aquel
mis sueños de ser quien soy ahora
un hombre que ríe y llora también.

Quiero volver a tus casas viejas
a tus calles polvorientas
quiero ver tu amanecer
ese amanecer tan diferente
y que ya no cambiaría
se que pronto he de volver.

C           D             G
Se que pronto he de volver... (bis)
Suggest correction
Give kudos to tab author, rate the tab!
1 2 3 4 5
comments
print report bad tab
guest
Wanna post a correction for this tab? Suggest correction