Oops, an error
Loading. Please wait.

Busca En Tu Corazón Tab

29 views 1 this week
no commentswrite comment
1 2 3 4 5
3 more votes to show rating
add to favorites
launch autoscroll
font size
0
reset
how to read this tab
guitar tuner
×
Best way to learn
"Busca En Tu Corazón"
Autoscroll
slow
fast
+/-
esc
set tempo
stop
Intro


--5-5-0-----5-5-0-2-3-2-3-2-3-0-2-3-2-0
3-------3-2----------------------------
---------------------------------------
---------------------------------------
---------------------------------------
---------------------------------------

--5-5-0-----5-5-0-2-3-2-3-2-3-0-2-3-2-0
3-------3-2----------------------------
---------------------------------------
---------------------------------------
---------------------------------------
---------------------------------------
---------------------------------------

RE
Busca en tu corazón
LA
Si quieres encontrar
SOL
El camino a seguir
LA
Descubre la verdad

RE
Ama sin condición
LA
No te rindas jamas
SOL
Donde vive el amor
LA
Vive la libertad

SIm
Y no te olvides
LA
Hay que luchar para ganar
MIm
Todo es posible
SOL            LA
Solo tienes que empezar

RE            LA
Búscalo en tu corazon
SOL                         LA
El camino que te lleve a la libertad
RE            LA                          ESTRIBILLO
Búscalo en tu corazon
SOL           LA
El camino que te lleve al amor

RE
Abre tu corazon
LA
Tan grande como el mar
SOL
Deja crecer allí
LA
Las ganas de volar

SIm
Y no te olvides
LA
Que hay que luchar para ganar
MIm
Todo es posible
SOL            LA
Solo tienes que empezar

ESTRIBILLO  X4


Para la cuarta vez

--5-5-0-----5-5-0-2-3-2-3-2-7-7-7-5-5
3-------3-2--------------------------
-------------------------------------
-------------------------------------
-------------------------------------
-------------------------------------


--5-5-0-----5-5-0-2-3-2-3-2-7-7-7-5-5
3-------3-2--------------------------
-------------------------------------
-------------------------------------
-------------------------------------
-------------------------------------


Fin
Suggest correction
Give kudos to tab author, rate the tab!
1 2 3 4 5
comments
print report bad tab
guest
You may want to rate the tab now too:
select rating
Wanna post a correction for this tab? Suggest correction